» » »

1990s, You Made Me Like It Tabs (ver.1)

Artists:  A B C D E F G H I J K L M N O P Q R S T U V W X Y Z # 

You Made Me Like It Tabs (ver.1)

1990s Tabs
 Rating:
4/5 (6 votes)
You Made Me Like It lessons Tabs too difficult? Try these video lessons and learn fast
1
                (Intro)
1990s - You made me like it

This is my first tab, so is not so good.
Please comment what you think about it.


Intro/Chorus:

e |-7---7--7--7---|-7---7--7--7-7---|
H |-10--9--7--7---|-10--9--7--7-7---|
G |-7---7--8--8---|-7---7--8--8-8---|
D |-9---9--9--9---|-9---9--9--9-9---|  x4
A |---------------|-----------------|
E |---------------|-----------------|

Verse: (let i ring)
 
e |-7--|   |-7--|   |--7-|
H |-10-|   |-9--|   |--7-|
G |-7--|   |-7--|   |--8-|
D |-9--|   |-9--|   |--9-|
A |----|   |----|   |----|
E |----|   |----|   |----|


Intro/Chorus:

e |-7---7--7--7---|-7---7--7--7-7---|
H |-10--9--7--7---|-10--9--7--7-7---|
G |-7---7--8--8---|-7---7--8--8-8---|
D |-9---9--9--9---|-9---9--9--9-9---|
A |---------------|-----------------|
E |---------------|-----------------|
            
Submit corrections

comments powered by Disqus
↑ Back to top | 1990s Tabs for You Made Me Like It. Lyrics for acoustic guitar and electric guitar. 1 Tablatures and chords are parodies/interpretations of the original songs. You may use it for private study, scholarship, research or language learning purposes only