» » »

See You At The Lights Tabs (ver.1)

Artists:  A B C D E F G H I J K L M N O P Q R S T U V W X Y Z # 

See You At The Lights Tabs (ver.1)

1990s
Rating:
4/5 (4 votes)

Hard to play? Try these video lessons and learn fast.
                I Suggest That You Buy The Album - Fantasic Indie Record

Intro

e|--------------------------------------------------------------------------|
B|----1---------------------------------------------------------------------|
G|----2---7---8-------------------------------------------------------------|
D|7---2---6---6-------------------------------------------------------------|
A|7---0---7---7-------------------------------------------------------------|
E|5-------5---5-------------------------------------------------------------|

Verse

e|--------------------------------------------------------------------------|
B|--------------------------------------------------------------------------|
G|----7---9---7-------------------------------------------------------------|
D|7---7---9---7-------------------------------------------------------------|
A|7---5---7---5-------------------------------------------------------------|
E|5-------------------------------------------------------------------------|

Chorus

e|--------------------------------------------------------------------------|
B|--------------------------------------------------------------------------|
G|---------7-7--77-------------9-9--7-7--6-6--4-4--9-9--11-11--13-13--14-14-|
D|7-7--77--7-7--77--44444444---9-9--7-7--6-6--4-4--9-9--11-11--13-13--14-14-|
A|7-7--77--5-5--55--44444444---7-7--5-5--4-4--2-2--7-7--9--9---11-11--12-12-|
E|5-5--55-----------22222222------------------------------------------------|

So Play The Intro, Verse, Chorus Again Then Shortly After The Chorus It's This Twice

e|--------------------------------------------------------------------------|
B|--------------------------------------------------------------------------|
G|----------------------------------9-9-9-9-9-9-9-9-------------------9-9---|
D|7-7-7-7-7-7-7-7--4-4-4-4-4-4-4-4--9-9-9-9-9-9-9-9--9-9-9-9-9-9-9-9--9-9---|
A|7-7-7-7-7-7-7-7--4-4-4-4-4-4-4-4--7-7-7-7-7-7-7-7--9-9-9-9-9-9-9-9--7-7---|
E|5-5-5-5-5-5-5-5--2-2-2-2-2-2-2-2-------------------7-7-7-7-7-7-7-7--------|

Play A Verse, Chorus And Intro Again And The Outro Goes Like This - Play It Twice

e|--------------------------------------------------------------------------|
B|--------1-1-11------------------------------------------------------------|
G|--------2-2-22--7-7-77--8-8-88--------------------------------------------|
D|7-7-77--2-2-22--7-7-77--8-8-88--------------------------------------------|
A|7-7-77--0-0-00--5-5-55--6-6-66--------------------------------------------|
E|5-5-55--------------------------------------------------------------------|

Comment If You Have An Opinion

Enjoy :D
            
Hard to play? Try these video lessons and learn fast. | Correct




comments powered by Disqus
↑ Back to top | Tablatures and chords are parodies/interpretations of the original songs. You may use it for private study, scholarship, research or language learning purposes only