» » »

See You At The Lights Bass tabs (ver.1)

Artists:  A B C D E F G H I J K L M N O P Q R S T U V W X Y Z # 

See You At The Lights Bass tabs (ver.1)

1990s
Rating:
0/5 (0 votes)

Tabs too difficult? Try these video lessons and learn fast.
                -----------------------------------------------------------------------
-----------------------------------------------------------------------


Tuning: Standard

Intro: Repeat in this pattern until
G|--------------------------------------------------------------------|
D|---7------7--7------------------------------------------------------|
A|--------------------------------------------------------------------|
E|-5------5--5--------------------------------------------------------|

Verse:
G|--------------------------------------------------------------------|
D|--------------------------------------------------------------------|
A|--------5-5555-7-777-9-5-5------------------------------------------|
E|-5-5555-------------------------------------------------------------|

G|--------------------------------------------------------------------|
D|--------------------------------------------------------------------|
A|---------55-5555----------------------------------------------------|
E|-55-5555---------2222222222222222-----------------------------------|

Chorus:
G|--------------------------------------------------------------------|
D|-------------------------------------------------------------5~-----|
A|-7777-5555-4444-2222--7777-9999-11-11-11-11-12-12-12-12---5~--------|
E|--------------------------------------------------------------------|

Bridge:
G|--------------------------------------------------------------------|
D|--------------------------------------------------------------------|
A|--------------------------------------------------------------------|
E|-5-5-5-555--2-2-2-222--7-7-7-777--10-10-10-101010-------------------|

Verse:
G|--------------------------------------------------------------------|
D|--------------------------------------------------------------------|
A|--------5-5555-7-777-9-5-5------------------------------------------|
E|-5-5555-------------------------------------------------------------|

G|--------------------------------------------------------------------|
D|--------------------------------------------------------------------|
A|---------55-5555---------55-5555------------------------------------|
E|-55-5555---------55-5555---------2222222222222222-------------------|

Chorus:
G|--------------------------------------------------------------------|
D|-------------------------------------------------------------5~-----|
A|-7777-5555-4444-2222--7777-9999-11-11-11-11-12-12-12-12---5~--------|
E|--------------------------------------------------------------------|



Outro: Repeat this................. Until end on this.
G|---------------------------------|----------------------------------|
D|---7------7--7-------------------|----------------------------------|
A|---------------------------------|----------------------------------|
E|-5------5--5---------------------|-5~-------------------------------|


/ Slide up
\ Slide down
h Hammer-on
p Pull-off
~ Vibrato
+ Harmonic
X Mute note
=======================================================================
            
Tabs too difficult? Try these video lessons and learn fast.


comments powered by Disqus
↑ Back to top | Tablatures and chords are parodies/interpretations of the original songs. You may use it for private study, scholarship, research or language learning purposes only