» »

/0-9/1349-tabs-44014.html

»

1349, Riders Of The Apocalypse Tabs (ver.1)

Artists:  A B C D E F G H I J K L M N O P Q R S T U V W X Y Z # 

Riders Of The Apocalypse Tabs (ver.1)

1349 Tabs
 Rating:
4/5 (7 votes)
Riders Of The Apocalypse lessons Tabs too difficult? Try these video lessons and learn fast
1
                The bands official page

Tunning D

INTRO
|-------------------------------------------------------------------|
|-------------------------------------------------------------------|
|-------------------------------------------------------------------|
|-------------------------------------------------------------------|
|-\x\x\x\x----------------------------------------------------------|
|-\x\x\x\x----------------------------------------------------------|

RIFF 1
|---------------------------------|---------------------------------|
|---------------------------------|---------------------------------|
|---------------------------------|---------------------------------|
|------------------------------X3-|---------------------------------|
|-7\4444-7\4444-11-8888-7\4444----|-7\4444-7\4444-11\88-7\44--------|
|-5\2222-5\2222--9\6666-5\2222----|-5\2222-5\2222--9\66-5\22--------|

RIFF 2 - X4
|-------------------------------------------------------------------|
|-------------------------------------------------------------------|
|-------------------------------------------------------------------|
|-------------------------------------------------------------------|
|-5\4--------65-5\4----------7\66/79\87\6---------------------------|
|-3\22222222243-3\2-22222222-5\44/57\65\4---------------------------|
     .........      ........


RIFF 1


RIFF 2.1 -X4
|-------------------------------------------------------------------|
|-------------------------------------------------------------------|
|-------------------------------------------------------------------|
|-------------------------------------------------------------------|
|-5\44444444465-5\4-44444444-7\66\79\87\6---------------------------|
|-3\22222222243-3\2-22222222-5\44/57\65\4---------------------------|
     .........      ........

 FILL AT 1:12
|--------------|
|--------------|
|--------------|
|--------------|
|-7-9-10-------|
|-5-7-8--------|


 RIFF 3  X2
|-------------------------------------------------------------------|
|-------------------------------------------------------------------|
|-------------------------------------------------------------------|
|-------------------------------------------------------------------|
|-8-88888-88888-8888-6-9-8-88888-88888-8888-3-6-5-55555-55555-------|
|-6-66666-66666-6666-4-7-6-66666-66666-6666-1-4-3-33333-33333-------|

 RIFF 3 Cont...
|-------------------------------------|
|-------------------------------------|
|-------------------------------------|
|-------------------------------------|
|-5555-3-6-5-55555-55555-55555-6-9----|
|-3333-1-4-3-33333-33333-33333-4-7----|

 RIFF 4 x 2  (Tremlo notes)
|------------------------------------------------------------------|
|------------------------------------------------------------------|
|------------------------------------------------------------------|
|-10-10-10-10-10-10-10-10-10-10-10-10-10-10-10-666666666666666-----|
|--8--8--8--8--8--8--8--8--8--8--8--8--8--8--8-444444444444444-----|
|------------------------------------------------------------------|


 RIFF 3
 RIFF 4

 RIFF 5 X11
|------------------------|----
|------------------------|----
|------------------------|----
|-4--7-7-5-4-------------|-4--
|-2--6-5-3-2-----445566--|-2--
|--00--------0000223344--|----
   ..        ..........

RIFF 6 X16

|----------------|------
|----------------|------
|----------------|------
|-7---7---6---8--|------
|-7---7---6---8--|-\X\X-
|-5000500040006--|-\X\X-
   ... ... ...

RIFF 1
RIFF 2

|----
|----
|----
|----
|-4--
|-2--
Fine~
            
Submit corrections

comments powered by Disqus
↑ Back to top | 1349 Tabs for Riders Of The Apocalypse. Lyrics for acoustic guitar and electric guitar. 1 Tablatures and chords are parodies/interpretations of the original songs. You may use it for private study, scholarship, research or language learning purposes only