>
 >
Manifest

Manifest Guitar Tabs

1349 - Manifest chords, tabs, tablatures, lyrics

Guitar lessons | Add/correct | Request | Top 50 tabs Artists:  A B C D E F G H I J K L M N O P Q R S T U V W X Y Z 0-9

Manifest Guitar Tabs – 1349

CD, Sheet music, Poster

Do you like Manifest? Share with your friends now
Tabs
#------------------------------------PLEASE  NOTE----------------------------------------------#

G: 1349 -  Manifest



Band   1349



. - palm mute / - slide up to
 - slide down to ~ - vibrato
h - hammer on p - pull off
, - slight palm mute [] - second time
" " tremolo note <> - Trill

Suffixes for bend
f - full bend h - half bend
ph - pinched harmonic q - quarter bend
t - tap bend * - see comment
^ - Hold bend r - release bend
x  Staccato ~ - vibrato bend

Tuning E A D G B E


Riff 1                                       x5
|----------------------------------------------|
|----------------------------------------------|
|--0"--3"--0"--3"---2"--4"--2"--4"--[3"]--[4"]-|
|--2"--2"--2"--2"---2"--2"--2"--2"--[3"]--[4"]-|
|----------------------------------------------|
|----------------------------------------------|

Riff 2 - Fill  1                            x1
|---------------------------------------------|
|---------------------------------------------|
|--------3--------------------3---------------|
|--2-----1----4-----3----2----1---4----3------|
|--2-----1----4-----3----0----1---4----3------|
|--0----------2-----1----0--------2----1------|

Riff 3                                                  x6
|----------------------------------------------------------|
|----------------------------------------------------------|
|---------------------------2"--1"--4"--3"--[2"]--[1"]-----|
|--2--2-2--2--2-2--2--2-2---2"--1"--4"--3"--[2"]--[1"]-----|
|--0--0-0--0--0-0--0--0-0----------------------------------|
|----------------------------------------------------------|
   .  . .  .  . .  .  . .

-----------------------------------|
-----------------------------------|
-----------------------------------|
--2"---3"--------------------------|
--2"---3"--------------------------|
-----------------------------------|

Riff 4                                                        x4
|-------------------------7"------------------------------------|
|----------------------8"----8"---------------------------------|
|-------------------8"----------5"-h4"--5"-h4"-------------2"---|
|---7"-h6"--7"-h6"-----------------------------3"-h2"-h3"-------|
|---------------------------------------------------------------|
|---------------------------------------------------------------|

Play Riff 3 x 6

Play Riff 4 x 4

Riff 5                  x8 Riff 5b                               x2
|-------------------------|-----------------------------------------|
|-------------------------|-----------------------------------------|
|--0-2--0-2--0-3--0-5-----|=----------------------------------------|
|--0-0--0-0--0-0--0-0-----|--0-0--2--0-0--3--0-0--[5]--6-5----------|
|-------------------------|--0-0--2--0-0--3--0-0--[5]--6-5----------|
|-------------------------|-----------------------------------------|

Fill 2  Riff 6                                                    x3
----||--------------------------------------------------------------|
----||--------------------------------------------------------------|
----||--------------------------------------------------------------|
--2-||--0"------3"--2"---0"---2"------------0"------3"--2"--0-"--2"-|
--2-||-----4"--------------------4"---3"--------4"------------------|
----||--------------------------------------------------------------|

Play Riff 5 b x 2 - End.





Comments


Popular 1349 tabs & chords
Alwas Aeon Tabs
Hellfire Tabs
Hellfire 1 Tabs
Riders Of The Apocalypse Tabs
Satanic Propaganda Intro Tabs
Sculptor Of Flesh Tabs
Serpentine Sibilance Tabs
Serpentine Sibilance Intro Tabs


Song lyrics



↑ Back to top | Tablatures and chords are parodies/interpretations of the original songs. You may use it for private study, scholarship, research or language learning purposes only
© 2014 AZChords.com Contact us | Privacy policy | DMCA | Add/correct tabs | Request tabs | Top 50 tabs