>
 >
The Way I Feel 3

The Way I Feel 3 Guitar Tabs

12 Stones - The Way I Feel 3 chords, tabs, tablatures, lyrics

Guitar lessons | Add/correct | Request | Top 50 tabs Artists:  A B C D E F G H I J K L M N O P Q R S T U V W X Y Z 0-9

The Way I Feel 3 Guitar Tabs – 12 Stones

CD, Sheet music, Poster

Do you like The Way I Feel 3? Share with your friends now
Bass TabsTabsTabs v2Tabs v3Tabs v4Tabs v5Tabs v6Tabs v7
Gtr I (C G C F A D) - 'Gtr. 1 (clean)'
Gtr II (C G C F A D) - 'Gtr. 2 ryhthm (w/ dist.)'
Gtr III (C G C F A D) - 'Gtr. 3 lead (w/ dist.)'


   Intro
    Q=80
    (Dmaj7)
   4/4
    Gtr I
    S S  S S S  S S E S  S S S  S S  S   S S  S S S  S S E S  S S S  S S  S  3x
||-------------------------------------|-------------------------------------||
||o------------------------------------|------------------------------------o||
||-------------------------------------|---------------------------------10--||
||------10-----10-------10-----10---10-|-----10-----10-------10-----10-------||
||o---8----8------8---8----8------8----|---8----8------8---8----8------8----o||
||--0--------0------8--------8---------|-0--------0------8--------8----------||


   Verse
    $
    S S  S S S  S S E S  S S S  S S  S   S S  S S S  S S E S  S S S  S S  S   3x
||-------------------------------------|--------------------------------------||
||o------------------------------------|-------------------------------------o||
||-------------------------------------|---------------------------------10---||
||------10-----10-------10-----10---10-|-----10-----10-------10-----10--------||
||o---8----8------8---8----8------8----|---8----8------8---8----8------8-----o||
||--0--------0------8--------8---------|-0--------0------8--------8-----------||


                                                                Gtr II
  S S  S S S  S S E S  S S S  S S  S   S S  S S S  S S E S  S S S S E
|------------------------------------|--------------------------x-x---||
|------------------------------------|--------------------------x-x---||
|------------------------------------|--------------------------x-x---||
|-----10-----10-------10-----10---10-|-----10-----10-------10---x-x---||
|---8----8------8---8----8------8----|---8----8------8---8----8-x-x---||
|-0--------0------8--------8---------|-0--------0------8--------x-x---||


 Chorus
  D5       Bb5        A5  F5        G5      D5F5G5
  E. S S S E. S E E S S   Q  E. S S S S S S S S S
|-----------------------|-------------------------|
|-----------------------|-------------------------|
|------x-x--------------|-------------------------|
|-0--0-x-x-8--8-8-8-8-7-|-3--3--3---5-5-5-5p0-3h5-|
|-0--0-x-x-8--8-8-8-8-7-|-3--3--3---5-5-5-5p0-3h5-|
|-0--0-x-x-8--8-8-8-8-7-|-3--3--3---5-5-5-5p0-3h5-|


  D5       Bb5          C5
  E. S S S E. S E E E    S  S  S  S S S  S  E  S S S  S  S  S  S
|---------------------|------------------------------------------|
|---------------------|------------------------------------------|
|------x-x------------|---------------x------------x-------------|
|-0--0-x-x-8--8-8-8-8-|-10-10-10-10---x-10-10-10---x-10-10-10-10-|
|-0--0-x-x-8--8-8-8-8-|-10-10-10-10---x-10-10-10---x-10-10-10-10-|
|-0--0-x-x-8--8-8-8-8-|-10-10-10-10---x-10-10-10---x-10-10-10-10-|


  D5          Bb5             A5  F5           G5         D5 F5G5
  Gtr II
   E.  S  S S  E.  S  E  E  S S    Q   E.  S S  S  S S  S  S S  S
|-------------------------------|---------------------------------|
|-------------------------------|---------------------------------|
|---------x-x-------------------|---------------------------------|
|--0---0--x-x--8---8--8--8--8-7-|--3---3---3----5--5-5--5p=0-3h=5-|
|--0---0--x-x--8---8--8--8--8-7-|--3---3---3----5--5-5--5p=0-3h=5-|
|--0---0--x-x--8---8--8--8--8-7-|--3---3---3----5--5-5--5p=0-3h=5-|
|
| Gtr III
|  E.  S  E    E.  S  E  E  S S    Q   E.  S S  S  E    S  E    S
|-------------------------------|---------------------------------|
|-------------------------------|---------------------------------|
|-------------10--10-10-10-10p9-|---------------------------------|
|-12--12-12---------------------|-10--10--10---12-12---12-12---12-|
|-------------------------------|---------------------------------|
|-------------------------------|---------------------------------|


                                                                 To Coda
  D5          Bb5               C5               C5
   E.  S  S S  E.  S  E  E  E    S  S  S  S S  S  S  E  S S  S  S  S  S  S
|-----------------------------|--------------------------------------------|
|-----------------------------|--------------------------------------------|
|---------x-x-----------------|----------------x-------------x-------------|
|--0---0--x-x--8---8--8--8--8-|-10-10-10-10----x-10-10-10----x-10-10-10-10-|
|--0---0--x-x--8---8--8--8--8-|-10-10-10-10----x-10-10-10----x-10-10-10-10-|
|--0---0--x-x--8---8--8--8--8-|-10-10-10-10----x-10-10-10----x-10-10-10-10-|
|
|  E.  S  E    E.  S  E  E  E    S  S  S  E    S  S  E  E    S  S  S  S  S
|-----------------------------|--------------------------------------------|
|-----------------------------|--------------------------------------------|
|-------------10--10-10-10-10-|-12-12-12-12---12-12-12-12---12-12-12-12-12-|
|-12--12-12-------------------|--------------------------------------------|
|-----------------------------|--------------------------------------------|
|-----------------------------|--------------------------------------------|


   2nd Verse
                                                             D.S. al Coda
    (Dmaj7)
    Gtr I
    S S  S S S  S S E S  S S S  S S  S   S S  S S S  S S E S  S S S  S S  S
||-------------------------------------|--------------------------------------||
||o------------------------------------|-------------------------------------o||
||-------------------------------------|---------------------------------10---||
||------10-----10-------10-----10---10-|-----10-----10-------10-----10--------||
||o---8----8------8---8----8------8----|---8----8------8---8----8------8-----o||
||--0--------0------8--------8---------|-0--------0------8--------8-----------||


 Guitar solo
  &
  D5        Bb5                      A5
  Gtr I
   E. S S S E.       S  E    E     S S
|--------------------------------------|
|--------------------------------------|
|-------x-x----------------------------|
|--0--0-x-x-8--------8--8----8-----8-7-|
|--0--0-x-x-8--------8--8----8-----8-7-|
|--0--0-x-x-8--------8--8----8-----8-7-|
|
| Gtr III
|  H            +S   S  S S  S  S  S S
|--------------------------------------|
|--------------------------------------|
|-------------------------9-10-12-10-9-|
|-12-----------(12)-10-12--------------|
|--------------------------------------|
|--------------------------------------|


  F5                     G5         D5 F5 G5
   Q         E.     S  S S  S  S  S  S  S S
|--------------------------------------------|
|--------------------------------------------|
|--------------------------------------------|
|--3---------3------3----5--5--5--5p=0--3h5--|
|--3---------3------3----5--5--5--5p=0--3h5--|
|--3---------3------3----5--5--5--5p=0--3h5--|
|
|  T T  E.  +E   S  S  E    S  S  S  S  S S
|--------------------------------------------|
|--------------------------------------------|
|-10p9---------------------------10----10-9--|
|------10--(10)-------10---10-12----12-------|
|---------------10-12------------------------|
|--------------------------------------------|


  D5          Bb5
   E. S  S  S  E.        S   E     E     E
|---------------------------------------------|
|---------------------------------------------|
|--------x--x---------------------------------|
|--0--0--x--x--8---------8---8-----8-----8----|
|--0--0--x--x--8---------8---8-----8-----8----|
|--0--0--x--x--8---------8---8-----8-----8----|
|
| +Q     S  S  S   S  S  S   S  S  S  S  S  S
|---------------------------------------------|
|------------------------------13----13----13-|
|-(9)---------10-----10-12-/14----14----14----|
|-------10-12-----12--------------------------|
|---------------------------------------------|
|---------------------------------------------|


  C5
    S   S  S  S S  S  S  E     S  S     S  S     S  S  S
|--------------------------------------------------------|
|--------------------------------------------------------|
|------------------x--------------------x----------------|
|--10--10-10-10----x-10-10----10--------x-10----10-10-10-|
|--10--10-10-10----x-10-10----10--------x-10----10-10-10-|
|--10--10-10-10----x-10-10----10--------x-10----10-10-10-|
|
|  +S   S  S  E    S  S  S  S  S  T  T  S  T  T  S  S  S
|-----------------------12-13-15-13p12----13p12----------|
|-(13)-13----13---13-15----------------13-------13-15-13-|
|---------14---------------------------------------------|
|--------------------------------------------------------|
|--------------------------------------------------------|
|--------------------------------------------------------|


         D5              Bb5                               A5
  Gtr II
           E.  S  S    S E.        S     E   E         S   S
|------------------------------------------------------------|
|------------------------------------------------------------|
|-----------------x----x-------------------------------------|
|----------0---0--x----x-8---------8-----8---8---------8---7-|
|----------0---0--x----x-8---------8-----8---8---------8---7-|
|----------0---0--x----x-8---------8-----8---8---------8---7-|
|
|  a      +Q      E.         E     E.        S   +S   +E
|-10-----(10)----10---------10----10-------(10)-(10)-(10)----|
|-13b15==(13)r---13b15------13b15-13b15=====13--(13)-(13)r---|
|------------------------------------------------------------|
|------------------------------------------------------------|
|------------------------------------------------------------|
|------------------------------------------------------------|


         F5                  G5                D5 F5    G5
           Q    E.    S    S  S  S     S  S     S  S     S
|----------------------------------------------------------|
|----------------------------------------------------------|
|----------------------------------------------------------|
|----------3----3-----3-------5--5-----5--5p====0--3h====5-|
|----------3----3-----3-------5--5-----5--5p====0--3h====5-|
|----------3----3-----3-------5--5-----5--5p====0--3h====5-|
|
|  a       Q    E.    E       S  T  T  S  T  T  S  T  T  S
|-10-----(10)--10----10---------13p10----13p10----13p10----|
|-13b15===13r--13b15-13b15---13-------13-------13-------13-|
|----------------------------------------------------------|
|----------------------------------------------------------|
|----------------------------------------------------------|
|----------------------------------------------------------|


         D5             Bb5
           E. S  S    S E.        S  E        E       E
|-------------------------------------------------------------|
|-------------------------------------------------------------|
|----------------x----x---------------------------------------|
|----------0--0--x----x-8---------8--8--------8-------8-------|
|----------0--0--x----x-8---------8--8--------8-------8-------|
|----------0--0--x----x-8---------8--8--------8-------8-------|
|
|  a       Q     E.         E     S  T  T  S  S  E       S
|-10-----(10)---10---------10-------13p10----10-13b15---13b15-|
|-13b15===13r---13b15------13b15-13-------13------------------|
|-------------------------------------------------------------|
|-------------------------------------------------------------|
|-------------------------------------------------------------|
|-------------------------------------------------------------|


  C5
   S  S  S  S  S     S     S        E        S S    S     S     S     S     S
|------------------------------------------------------------------------------|
|------------------------------------------------------------------------------|
|--------------------x------------------------------x--------------------------|
|-10-10-10-10--------x----10-------10-------10------x----10----10----10----10--|
|-10-10-10-10--------x----10-------10-------10------x----10----10----10----10--|
|-10-10-10-10--------x----10-------10-------10------x----10----10----10----10--|
|
|  Q           T  T  T  T  T  E        E          S    T  T  T  T  T  T  T  S
|-13----------10h13p10---------------------------------------------------------|
|----------------------13-13-13b15----13b15------13---10h13p10-----------------|
|--------------------------------------------------------------12-10h12p10-----|
|--------------------------------------------------------------------------12--|
|------------------------------------------------------------------------------|
|------------------------------------------------------------------------------|


  D5                    Bb5                   A5
    E. S   S   S          E. S E   E        S  S
|------------------------------------------------|
|------------------------------------------------|
|----------x---x---------------------------------|
|---0--0---x---x----------8--8-8---8--------8--7-|
|---0--0---x---x----------8--8-8---8--------8--7-|
|---0--0---x---x----------8--8-8---8--------8--7-|
|
|  +Q     +E      a      +Q.      +S   +S   S  S
|----------------15b17==(15)-----(15)r(15)-13-15-|
|------------------------------------------------|
|------------------------------------------------|
|-(12)---(12)\-----------------------------------|
|------------------------------------------------|
|------------------------------------------------|


  F5                                          G5          D5 F5 G5
   Q                     E.           S     S  S  S  S  S  S  S  S
|-------------------------------------------------------------------|
|-------------------------------------------------------------------|
|-------------------------------------------------------------------|
|--3---------------------3------------3--------5--5--5--5p=0--3h=5--|
|--3---------------------3------------3--------5--5--5--5p=0--3h=5--|
|--3---------------------3------------3--------5--5--5--5p=0--3h=5--|
|
|  T     +T   S  S  E        S  T  T  T  T  S  S  S  S  S  S  S  S
|-15b17r(15)p13----15b17----15-13h15p13----13-----------------------|
|---------------15----------------------15----15-15-13-13-10--------|
|------------------------------------------------------------12-10--|
|-------------------------------------------------------------------|
|-------------------------------------------------------------------|
|-------------------------------------------------------------------|


  D5             Bb5
   E   E    S  E     S  E       T  T  T  T  S  S  +E
|-----------------------------------------------------|
|-------------------10-13b15---10-13-10---------------|
|-----10------10------------------------12p10---------|
|-12-------12---------------------------------12-(12)-|
|-----------------------------------------------------|
|-----------------------------------------------------|
|
|  E.    S  S  S E.          S  E           E      E
|-----------------------------------------------------|
|-----------------------------------------------------|
|-----------x--x--------------------------------------|
|--0-----0--x--x-8-----------8--8-----------8------8--|
|--0-----0--x--x-8-----------8--8-----------8------8--|
|--0-----0--x--x-8-----------8--8-----------8------8--|


  C5
   S      S  S   S      S  S   S      S  S   S      S  S   S      S  S  S
|--------------------------------------------------------------------------|
|--------------------------------------------------------------------------|
|-10b12==10-10r-10b12==10-10r-10b12==10-10r-10b12==10-10r-10b12==10-10-10r-|
|--------------------------------------------------------------------------|
|--------------------------------------------------------------------------|
|--------------------------------------------------------------------------|
|
|  S      S  S   S      S  S   S      E      S      S  S   S      S  S  S
|--------------------------------------------------------------------------|
|--------------------------------------------------------------------------|
|--------------------------x---------------------------x-------------------|
|-10-----10-10--10---------x--10-----10-----10---------x--10-----10-10-10--|
|-10-----10-10--10---------x--10-----10-----10---------x--10-----10-10-10--|
|-10-----10-10--10---------x--10-----10-----10---------x--10-----10-10-10--|


 Outro Chorus
  D5       Bb5        A5  F5        G5      D5F5G5
  Gtr I
  E. S S S E. S E E S S   Q  E. S S S S S S S S S
|-----------------------|-------------------------|
|-----------------------|-------------------------|
|------x-x--------------|-------------------------|
|-0--0-x-x-8--8-8-8-8-7-|-3--3--3---5-5-5-5p0-3h5-|
|-0--0-x-x-8--8-8-8-8-7-|-3--3--3---5-5-5-5p0-3h5-|
|-0--0-x-x-8--8-8-8-8-7-|-3--3--3---5-5-5-5p0-3h5-|


  D5       Bb5          C5
                        Gtr II
  E. S S S E. S E E E    S  S  S  S S S  S  E  S S S  S  S  S  S
|---------------------|------------------------------------------|
|---------------------|------------------------------------------|
|------x-x------------|---------------x------------x-------------|
|-0--0-x-x-8--8-8-8-8-|-10-10-10-10---x-10-10-10---x-10-10-10-10-|
|-0--0-x-x-8--8-8-8-8-|-10-10-10-10---x-10-10-10---x-10-10-10-10-|
|-0--0-x-x-8--8-8-8-8-|-10-10-10-10---x-10-10-10---x-10-10-10-10-|


  D5       Bb5        A5  F5        G5      D5F5G5
  E. S S S E. S E E S S   Q  E. S S S S S S S S S
|-----------------------|-------------------------|
|-----------------------|-------------------------|
|------x-x--------------|-------------------------|
|-0--0-x-x-8--8-8-8-8-7-|-3--3--3---5-5-5-5p0-3h5-|
|-0--0-x-x-8--8-8-8-8-7-|-3--3--3---5-5-5-5p0-3h5-|
|-0--0-x-x-8--8-8-8-8-7-|-3--3--3---5-5-5-5p0-3h5-|


  D5       Bb5          C5
  E. S S S E. S E E E    S  S  S  S S S  S  E  S S S  S  S  S  S
|---------------------|------------------------------------------|
|---------------------|------------------------------------------|
|------x-x------------|---------------x------------x-------------|
|-0--0-x-x-8--8-8-8-8-|-10-10-10-10---x-10-10-10---x-10-10-10-10-|
|-0--0-x-x-8--8-8-8-8-|-10-10-10-10---x-10-10-10---x-10-10-10-10-|
|-0--0-x-x-8--8-8-8-8-|-10-10-10-10---x-10-10-10---x-10-10-10-10-|


  D5       Bb5        A5  F5        G5      D5F5G5
  E. S S S E. S E E S S   Q  E. S S S S S S S S S
|-----------------------|-------------------------|
|-----------------------|-------------------------|
|------x-x--------------|-------------------------|
|-0--0-x-x-8--8-8-8-8-7-|-3--3--3---5-5-5-5p0-3h5-|
|-0--0-x-x-8--8-8-8-8-7-|-3--3--3---5-5-5-5p0-3h5-|
|-0--0-x-x-8--8-8-8-8-7-|-3--3--3---5-5-5-5p0-3h5-|


  D5       Bb5          C5
  E. S S S E. S E E E    S  S  S  S S S  S  E  S S S  S  S  S  S
|---------------------|------------------------------------------|
|---------------------|------------------------------------------|
|------x-x------------|---------------x------------x-------------|
|-0--0-x-x-8--8-8-8-8-|-10-10-10-10---x-10-10-10---x-10-10-10-10-|
|-0--0-x-x-8--8-8-8-8-|-10-10-10-10---x-10-10-10---x-10-10-10-10-|
|-0--0-x-x-8--8-8-8-8-|-10-10-10-10---x-10-10-10---x-10-10-10-10-|


  D5       Bb5        A5  F5        G5      D5F5G5
  E. S S S E. S E E S S   Q  E. S S S S S S S S S
|-----------------------|-------------------------|
|-----------------------|-------------------------|
|------x-x--------------|-------------------------|
|-0--0-x-x-8--8-8-8-8-7-|-3--3--3---5-5-5-5p0-3h5-|
|-0--0-x-x-8--8-8-8-8-7-|-3--3--3---5-5-5-5p0-3h5-|
|-0--0-x-x-8--8-8-8-8-7-|-3--3--3---5-5-5-5p0-3h5-|


  D5       Bb5          C5
  E. S S S E. S E E E    S  S  S  S S S  S  E  S S S  S  S  S  S
|---------------------|------------------------------------------*|
|---------------------|------------------------------------------*|
|------x-x------------|---------------x------------x-------------*|
|-0--0-x-x-8--8-8-8-8-|-10-10-10-10---x-10-10-10---x-10-10-10-10-*|
|-0--0-x-x-8--8-8-8-8-|-10-10-10-10---x-10-10-10---x-10-10-10-10-*|
|-0--0-x-x-8--8-8-8-8-|-10-10-10-10---x-10-10-10---x-10-10-10-10-*|




--------------------------------------------------------------------------------


Duration Legend
---------------
W - whole; H - half; Q - quarter; E - 8th; S - 16th; T - 32nd; X - 64th; a - acciaccatura
+ - note tied to previous; . - note dotted; .. - note double dotted
Uncapitalized letters represent notes that are staccato (1/2 duration)
Irregular groupings are notated above the duration line
Duration letters will always appear directly above the note/fret number it represents the
duration for.  Duration letters with no fret number below them represent rests.  Multi-
bar rests are notated in the form Wxn, where n is the number of bars to rest for.  Low
melody durations appear below the staff

Tablature Legend
----------------
 h   - hammer-on
 p   - pull-off
 b   - bend
 pb  - pre-bend
 r   - bend release (if no number after the r, then release immediately)
 /\  - slide into or out of (from/to "nowhere")
 s   - legato slide
 S   - shift slide
 - natural harmonic
[n]  - artificial harmonic
n(n) - tapped harmonic
 ~   - vibrato
 tr  - trill
 T   - tap
 TP  - trem. picking
 PM  - palm muting
\n/  - tremolo bar dip; n = amount to dip
 \n  - tremolo bar down
 n/  - tremolo bar up
/n\  - tremolo bar inverted dip
 =   - hold bend; also acts as connecting device for hammers/pulls
 <> - volume swell (louder/softer)
 x   - on rhythm slash represents muted slash
 o   - on rhythm slash represents single note slash

Misc Legend
-----------
 |  - bar
||  - double bar
||o - repeat start
o|| - repeat end
*|  - double bar (ending)
 :  - bar (freetime)
 $  - Segno
 &  - Coda
Tempo markers -  = BPM(8/16=s8/s16), where s8 = swing 8ths, s16 = swing 16ths





Comments


Popular 12 Stones tabs & chords
Adrenaline Bass Tabs
Eric's Song Bass Tabs
The Way I Feel 1 Chords
Way I Fell Chords
3 Leaf Loser Tabs
Home 1 Tabs
It Was You Tabs
Shadows Tabs
The Way I Feel 4 Tabs
Way I Feel Ukulele


Song lyrics



↑ Back to top | Tablatures and chords are parodies/interpretations of the original songs. You may use it for private study, scholarship, research or language learning purposes only
© 2014 AZChords.com Contact us | Privacy policy | DMCA | Add/correct tabs | Request tabs | Top 50 tabs