>
 >
Stay 3

Stay 3 Guitar Tabs

12 Stones - Stay 3 chords, tabs, tablatures, lyrics

Guitar lessons | Add/correct | Request | Top 50 tabs Artists:  A B C D E F G H I J K L M N O P Q R S T U V W X Y Z 0-9

Stay 3 Guitar Tabs – 12 Stones

CD, Sheet music, Poster

Do you like Stay 3? Share with your friends now
TabsTabs v2Tabs v3Tabs v4
12 Stones - Stay

Normal tuning

Intro

1 |------------------------------------------|
2 |--------------------------------------1---|
3 |------------------------------2-2-2-2-2---|
4 |---2---2h3-3----0---0h2-2-----3-3-3-3-3---|
5 |-0---0------------------------3-3-3-3-3---|
6 |--------------3---3--------1--1-1-1-1-1---|

Repeat x4


Chorus 1
Note: Playing the standard open F may be easier for some
      than the bar chord, and it also sounds good.

1 |-1--1--1-1-1-0--0--0-0-0-1--1--1-1-1-1--1--1-1-1-|
2 |-0--0--0-0-0-1--1--1-1-1-1--1--1-1-1-0--0--0-0-0-|
3 |-0--0--0-0-0-2--2--2-2-2-2--2--2-2-2-0--0--0-0-0-|
4 |-0--0--0-0-0-2--2--2-2-2-3--3--3-3-3-0--0--0-0-0-|
5 |-2--2--2-2-2-0--0--0-0-0-3--3--3-3-3-2--2--2-2-2-|
6 |-3--3--3-3-3-------------1--1--1-1-1-3--3--3-3-3-|

1 |-1--1--1-1-1-0--0--0-0-0-1--1--1-1-1-1--1--1-1-1-|
2 |-0--0--0-0-0-1--1--1-1-1-1--1--1-1-1-0--0--0-0-0-|
3 |-0--0--0-0-0-2--2--2-2-2-2--2--2-2-2-0--0--0-0-0-|
4 |-0--0--0-0-0-2--2--2-2-2-3--3--3-3-3-0--0--0-0-0-|
5 |-2--2--2-2-2-0--0--0-0-0-3--3--3-3-3-2--2--2-2-2-|
6 |-3--3--3-3-3-------------1--1--1-1-1-3--3--3-3-3-|

Chorus 2
Overdrive

1 |-------------------------------------|
2 |-------------------------------------|
3 |-------------------------------------|
4 |-3--3----5----7--7--7--7-10-10-10-10-|
5 |-3--3----5----7--7--7--7-10-10-10-10-|
6 |-1--1----3----5--5--5--5--8--8--8--8-|

1 |--------------------------------------------|
2 |--------------------------------------------|
3 |--------------------------------------------|
4 |-3--3----5----7-7--7-7--7-7-----------------|
5 |-3--3----5----7-7--7-7--7-7-----------------|
6 |-1--1----3----5-5--5-5--5-5---8-7-5-7-5-7-8-|

This bit first time only:
1 |-------------------------------------|
2 |-------------------------------------|
3 |-------------------------------------|
4 |-3--3----5----7--7--7--7-10-10-10-10-|
5 |-3--3----5----7--7--7--7-10-10-10-10-|
6 |-1--1----3----5--5--5--5--8--8--8--8-|

Interlude

Backing, repeat x2
1 |----------------------------------------|
2 |----------------------------------------|
3 |----------------------------------------|
4 |-3--3----5----7-7-7-7--5-5-5-5--3-3-3-3-|
5 |-3--3----5----7-7-7-7--5-5-5-5--3-3-3-3-|
6 |-1--1----3----5-5-5-5--3-3-3-3--1-1-1-1-|

Lead
1 |--------------------------------------------------------|
2 |--------------------------------------------------------|
3 |------------------------------------------------------5-|
4 |----------------5-7---7-7-7--5-7-5-5-5--7-5-------5-7---|
5 |--------------7-----------------------------8---8-------|
6 |--------------------------------------------------------|

1 |-----------------------------------------------------------------------|
2 |-------------------8--8-8h108-5---5-------6--6-5-6-5--5-6-5------------|
3 |-5---5-7-5-7/8-7/8--------------7---7-5---------------------7-5-7-5----|
4 |---7-----------------------------------------------------------------7-|
5 |-----------------------------------------------------------------------|
6 |-----------------------------------------------------------------------|


Repeat intro x4
Repeat chorus 1 
Repeat chrous 2

Second chorus ending
1 |-----------------------------------------------------------------|
2 |-----------------------------------------------------------------|
3 |-----------------------------------------------------------------|
4 |-3--3----5----7--7--7--7-(10)-(10)-(10)-(10)-(10)-(10)-(10)-(10)-|
5 |-3--3----5----7--7--7--7-(10)-(10)-(10)-(10)-(10)-(10)-(10)-(10)-|
6 |-1--1----3----5--5--5--5--(8)--(8)--(8)--(8)--(8)--(8)--(8)--(8)-|

Bridge
1 |----------------------------------------|
2 |----------------------------------------|
3 |----------------------------------------|
4 |-12-12-12-12---3-3-3-3--7-7-7-7-7-7-7-7-|
5 |-12-12-12-12---3-3-3-3--7-7-7-7-7-7-7-7-|
6 |-10-10-10-10---1-1-1-1--5-5-5-5-5-5-5-5-|
Repeat x3

1 |----------------------------------------------------------|
2 |----------------------------------------------------------|
3 |----------------------------------------------------------|
4 |-12-12-12-12---3-3-3-3--7-7-7-7--10-10-10-10--12-12-12-12-|
5 |-12-12-12-12---3-3-3-3--7-7-7-7--10-10-10-10--12-12-12-12-|
6 |-10-10-10-10---1-1-1-1--5-5-5-5---8--8--8--8--10-10-10-10-|

Chorus 3
No overdrive


1 |-------------------------------------|
2 |-------------------------------------|
3 |-2--2----4----6--6--6--6--9--9--9--9-|
4 |-3--3----5----7--7--7--7-10-10-10-10-|
5 |-3--3----5----7--7--7--7-10-10-10-10-|
6 |-1--1----3----5--5--5--5--8--8--8--8-|

1 |-------------------------------------|
2 |-------------------------------------|
3 |-2--2----4----6--6--6--6--6--6--6--6-|
4 |-3--3----5----7--7--7--7--7--7--7--7-|
5 |-3--3----5----7--7--7--7--7--7--7--7-|
6 |-1--1----3----5--5--5--5--5--5--5--5-|

1 |-------------------------------------|
2 |-------------------------------------|
3 |-2--2----4----6--6--6--6--9--9--9--9-|
4 |-3--3----5----7--7--7--7-10-10-10-10-|
5 |-3--3----5----7--7--7--7-10-10-10-10-|
6 |-1--1----3----5--5--5--5--8--8--8--8-|

1 |-------------------------------------|
2 |-------------------------------------|
3 |-2--2----4----6----------------------|
4 |-3--3----5----7----------------------|
5 |-3--3----5----7----------------------|
6 |-1--1----3----5----------------------|

Repeat chorus 2

Repeat backing x4

Play your own solo here :)
(It's not worth tabbing)





Comments


Popular 12 Stones tabs & chords
Broken Bass Tabs
Lie To Me Bass Tabs
Broken 2 Tabs
Crash 6 Tabs
Far Away 1 Tabs
Far Away 2 Tabs
Home 2 Tabs
Let Go 1 Tabs
Hey Love Ukulele
Lie To Me Ukulele


Song lyrics



↑ Back to top | Tablatures and chords are parodies/interpretations of the original songs. You may use it for private study, scholarship, research or language learning purposes only
© 2014 AZChords.com Contact us | Privacy policy | DMCA | Add/correct tabs | Request tabs | Top 50 tabs