» » »

12 Stones, Running Out Of Pain Tabs (ver.1)

Artists:  A B C D E F G H I J K L M N O P Q R S T U V W X Y Z # 

Running Out Of Pain Tabs (ver.1)

12 Stones Tabs
 Rating:
4/5 (4 votes)
Running Out Of Pain lessons Tabs too difficult? Try these video lessons and learn fast
                
This is pretty much the whole song........just listen for timing of how to play the notes.

Verse 1 Drop D tuning EBGDAD
-------0------------0-----------0-------------0----------------
-----4---4--------4---4-------4---4---------4---4--------------
---2-------2----2------2----0-------0-----0-------0------------
-2----------2-2---------2-0-----------0-0-----------0----------

-----------3-3-------0--3-0---------5-5-----0---5-0---------------
---------0------0-----------------0-----0-------------------------
------2----------2--------------4--------4------------------------
----3------------------2------0---------------0-------------------

Chours: "And i lie awake........."
 Listen for timing and for how many times eric strumms this during the chorus
--4---4---4-/----6--2--2-----5----5---5------7---7--7------------------
--2---2---2-/----4--0--0-----5----5---5------7---7--7------------------
--2---2---2--/---4--0--0-----3----3---3------5---5--5------------------
--2---2---2--/---4--0--0-----------------------------------------------

Verse 2: repeat the first verse.

Bridge... listen for palm mutes and timing but im pretty sure he playes these chords

-------------------------------------------------------------
-------------------------------------------------------------
-------------------------------------------------------------
-----0-h---2--2---0-h--2--2-h-3-p-2---0-h--2------------------
-----0--h--2--2---0-h--2--2-h-3-p-2---0-h--2------------------
-----0---h-2--2---0-h--2--2-h-3-p-2---0-h--2------------------
            
Submit corrections

comments powered by Disqus
↑ Back to top | 12 Stones Tabs for Running Out Of Pain. Lyrics for acoustic guitar and electric guitar. Tablatures and chords are parodies/interpretations of the original songs. You may use it for private study, scholarship, research or language learning purposes only