» » »

12 Stones, My Life Tabs (ver.3)

Artists:  A B C D E F G H I J K L M N O P Q R S T U V W X Y Z # 

My Life Tabs (ver.3)

12 Stones Tabs
 Rating:
4/5 (4 votes)
My Life lessons Tabs too difficult? Try these video lessons and learn fast
1
                Tunning: Dropped D (D-A-D-G-B-E)


Intro: 2x (Delay)                           <--->Distorted
E  :----------------------|----------------------|
B  :----------------------|----------------------|
G  :----------------------|----------------------|
D  :0-7-0-8-7-0-7-0-0-8-7-|0-7-0-8-7-0-7-0-0-3-3-|
A  :----------------------|------------------3-3-|
D  :0---------0-----0-----|0---------0-------3-3-|


Verse 1: 4x (Delay)
E  :----------------------|----------------------|
B  :----------------------|----------------------|
G  :----------------------|----------------------|
D  :0-7-0-8-7-0-7-0-0-8-7-|0-7-0-8-7-0-7-0-0-8-7-|
A  :----------------------|----------------------|
D  :0---------0-----0-----|0---------0-----0-----|


Chorus 1: 1x (Distorted)
E  :----------------|------------------|----------------|------------------|
B  :----------------|------------------|----------------|------------------|
G  :----------------|--5-5---x---------|----------------|------------------|
D  :0---x-x-0-3-3---|x-5-5---x-8---(8)-|0---x-x-0-3-3---|x-8-8-8-x-7-x-(7)-|
A  :0---x-x-0-3-3---|x-3-3---x-8---(8)-|0---x-x-0-3-3---|x-8-8-8-x-7-x-(7)-|
D  :0---x-x-0-3-3---|x---------8---(8)-|0---x-x-0-3-3---|x-8-8-8-x-7-x-(7)-|


E  :----------------|------------------|----------------|------------------|
B  :----------------|------------------|----------------|------------------|
G  :----------------|--5-5---x---------|----------------|------------------|
D  :0---x-x-0-3-3---|x-3-3---x-8---(8)-|7---7---7---7-7-|x-3-x-3-3-5-(5)---|
A  :0---x-x-0-3-3---|x-3-3---x-8---(8)-|7---7---7---7-7-|x-3-x-3-3-5-(5)---|
D  :0---x-x-0-3-3---|x---------8---(8)-|7---7---7---7-7-|x-3-x-3-3-5-(5)---|


Verse 1: 4x (Delay)
E  :----------------------|----------------------|
B  :----------------------|----------------------|
G  :----------------------|----------------------|
D  :0-7-0-8-7-0-7-0-0-8-7-|0-7-0-8-7-0-7-0-0-8-7-|
A  :----------------------|----------------------|
D  :0---------0-----0-----|0---------0-----0-----|


Chorus 2: 2x (Distorted)
E  :----------------|------------------|----------------|------------------|
B  :----------------|------------------|----------------|------------------|
G  :----------------|--5-5---x---------|----------------|------------------|
D  :0---x-x-0-3-3---|x-5-5---x-8---(8)-|0---x-x-0-3-3---|x-8-8-8-x-7-x-(7)-|
A  :0---x-x-0-3-3---|x-3-3---x-8---(8)-|0---x-x-0-3-3---|x-8-8-8-x-7-x-(7)-|
D  :0---x-x-0-3-3---|x---------8---(8)-|0---x-x-0-3-3---|x-8-8-8-x-7-x-(7)-|


E  :----------------|------------------|----------------|------------------|
B  :----------------|------------------|----------------|------------------|
G  :----------------|--5-5---x---------|----------------|------------------|
D  :0---x-x-0-3-3---|x-3-3---x-8---(8)-|7---7---7---7-7-|x-3-x-3-3-5-(5)---|
A  :0---x-x-0-3-3---|x-3-3---x-8---(8)-|7---7---7---7-7-|x-3-x-3-3-5-(5)---|
D  :0---x-x-0-3-3---|x---------8---(8)-|7---7---7---7-7-|x-3-x-3-3-5-(5)---|


Bridge Part 1: 3x (Distorted)
E  :----------------|----------------|----------------|
B  :----------------|----------------|----------------|
G  :--------9-------|----9-------9---|--------9-------|
D  :--------8-------|----8-------8---|--------8-------|
A  :--------7-------|----7-------7---|--------7-------|
D  :0-0-0-0-----0-0-|0-0-----0-0-----|0-0-0-0-----0-0-|

Bridge Part 2 (Distorted)
E  :----------------|-----------------|
B  :----------------|-----------------|
G  :--------9-------|-----------------|
D  :--------8-------|x--x--x--x--x--x-|
A  :--------7-------|x--x--x--x--x--x-|
D  :0-0-0-0-----0-0-|8-*5-*3-*5-*3-*2-|

Bridge Part 1: 3x (Distorted)
E  :----------------|----------------|----------------|
B  :----------------|----------------|----------------|
G  :--------9-------|----9-------9---|--------9-------|
D  :--------8-------|----8-------8---|--------8-------|
A  :--------7-------|----7-------7---|--------7-------|
D  :0-0-0-0-----0-0-|0-0-----0-0-----|0-0-0-0-----0-0-|

Bridge Part 2 (Distorted)
E  :----------------|-----------------|---------------|
B  :----------------|-----------------|---------------|
G  :--------9-------|-----------------|---------------|
D  :--------8-------|x--x--x--x--x--x-|---------------|
A  :--------7-------|x--x--x--x--x--x-|---------------|
D  :0-0-0-0-----0-0-|8-*5-*3-*5-*3-*2-|---------------|

Bridge Part 3 (Distorted)
Guitar 1- Solo (don't know it)

Guitar 2
E  :----------------|------------------|----------------|------------------|
B  :----------------|------------------|----------------|------------------|
G  :----------------|--5-5---x---------|----------------|------------------|
D  :0---x-x-0-3-3---|x-5-5---x-8---(8)-|0---x-x-0-3-3---|x-8-8-8-x-7-x-(7)-|
A  :0---x-x-0-3-3---|x-3-3---x-8---(8)-|0---x-x-0-3-3---|x-8-8-8-x-7-x-(7)-|
D  :0---x-x-0-3-3---|x---------8---(8)-|0---x-x-0-3-3---|x-8-8-8-x-7-x-(7)-|

E  :----------------|------------------|----------------|------------------|
B  :----------------|------------------|----------------|------------------|
G  :----------------|--5-5---x---------|----------------|------------------|
D  :0---x-x-0-3-3---|x-3-3---x-8---(8)-|7---7---7---7-7-|x-3-x-3-3-5-(5)---|
A  :0---x-x-0-3-3---|x-3-3---x-8---(8)-|7---7---7---7-7-|x-3-x-3-3-5-(5)---|
D  :0---x-x-0-3-3---|x---------8---(8)-|7---7---7---7-7-|x-3-x-3-3-5-(5)---|


Chorus 3: 2x (Distorted)
E  :----------------|------------------|----------------|------------------|
B  :----------------|------------------|----------------|------------------|
G  :----------------|--5-5---x---------|----------------|------------------|
D  :0---x-x-0-3-3---|x-5-5---x-8---(8)-|0---x-x-0-3-3---|x-8-8-8-x-7-x-(7)-|
A  :0---x-x-0-3-3---|x-3-3---x-8---(8)-|0---x-x-0-3-3---|x-8-8-8-x-7-x-(7)-|
D  :0---x-x-0-3-3---|x---------8---(8)-|0---x-x-0-3-3---|x-8-8-8-x-7-x-(7)-|

E  :----------------|------------------|----------------|------------------|
B  :----------------|------------------|----------------|------------------|
G  :----------------|--5-5---x---------|----------------|------------------|
D  :0---x-x-0-3-3---|x-3-3---x-8---(8)-|7---7---7---7-7-|x-3-x-3-3-5-(5)---|
A  :0---x-x-0-3-3---|x-3-3---x-8---(8)-|7---7---7---7-7-|x-3-x-3-3-5-(5)---|
D  :0---x-x-0-3-3---|x---------8---(8)-|7---7---7---7-7-|x-3-x-3-3-5-(5)---|


Outro (Distorted)
E  :----------------|------------------|----------------|
B  :----------------|------------------|----------------|
G  :----------------|------------------|----------------|
D  :7---7---7---7-7-|x-3-x-3-3-5-(5)---|0---------------|
A  :7---7---7---7-7-|x-3-x-3-3-5-(5)---|0---------------|
D  :7---7---7---7-7-|x-3-x-3-3-5-(5)---|0---------------|
            
Submit corrections

comments powered by Disqus
↑ Back to top | 12 Stones Tabs for My Life. Lyrics for acoustic guitar and electric guitar. 1 Tablatures and chords are parodies/interpretations of the original songs. You may use it for private study, scholarship, research or language learning purposes only