» » »

12 Stones, My Life Tabs (ver.2)

Artists:  A B C D E F G H I J K L M N O P Q R S T U V W X Y Z # 

My Life Tabs (ver.2)

12 Stones Tabs
Rating:
0/5 (0 votes)
My Life lessons Tabs too difficult? Try these video lessons and learn fast
                12 Stones - My Life - "Scorpion King" ST
Tune: Drop-D (DADGBE)

Intro:
E|-------------------------------------------
B|-------------------------------------------
G|---2---3-2----2---3-2----------------------
D|0----0-----0----0-------3-3----------------
A|------------------------3-3----------------
D|------------------------3-3----------------

Verse: you only need G and hi-D to play
G|---2---3-2----2----3-2-----keep going
D|0----0-----0----0-------0--with that

Chorus: only D-A-D strings
D|0--x-x--3-5-5-5--10-10-10--8-8-8
A|0--x-x--3-5-5-5--10-10-10--8-8-8
D|0--x-x--3-5-5-5--10-10-10--8-8-8

D|0--x-x--3-5-5-5--8-8-8--7-7-7
A|0--x-x--3-5-5-5--8-8-8--7-7-7
D|0--x-x--3-5-5-5--------------

D|0--x-x--3-5-5-5--10-10-10--8-8-8
A|0--x-x--3-5-5-5--10-10-10--8-8-8
D|0--x-x--3-5-5-5--10-10-10--8-8-8

D|7-7-7-7-7--3-3-3--5
A|7-7-7-7-7--3-3-3--5
D|7-7-7-7-7--3-3-3--5

Bridge:
E|-------------------------------------------
B|-------------------------------------------
G|--------9----------9-----9--repeat---------
D|--------8----------8-----8--3x then--------
A|--------7----------7-----7-----------------
D|0-0-0-0----0-0-0-0---0-0-------------------
  PM all 0's on the low-D

E|-------------------------------------------
B|-------------------------------------------
G|---------9---------------------------------
D|---------8---------------------------------
A|---------7-----7-5-3-5-3-2-----------------
D|0-0-0-0----0-0-----------------------------
  PM all 0's on the low-D

Solo:
I don't know what they play in the song. Just improvise. Put the chorus on top of the solo. 

Lyrics:
I find myself in question again 
And I doubt this Love you've given to me 
I hope you understand when I say 
I need this time to myself 

You speak your mind to me again 
You force your words so deep within 
You try to tell me how to live 
But it's my life

I know your open arms too well 
Cause I’ve lost myself there many times before 
I need to slowly fall away 
Far from the grip you have on me

You speak your mind to me again 
You force your words so deep within 
You try to tell me how to live 
But it's my life
I find these words were never true 
I've lost all my respect for you 
I need to find my own way 
It's my life

I gotta get away 
One step away 
I gotta get away 
Just one step away 
I gotta away you're pushing me away 
I gotta get away 
Well I'm gone 
            
Submit corrections

comments powered by Disqus
↑ Back to top | 12 Stones Tabs for My Life. Lyrics for acoustic guitar and electric guitar. Tablatures and chords are parodies/interpretations of the original songs. You may use it for private study, scholarship, research or language learning purposes only