» » »

Lifeless Tabs (ver.1)

Artists:  A B C D E F G H I J K L M N O P Q R S T U V W X Y Z # 

Lifeless Tabs (ver.1)

12 Stones
Rating:
0/5 (0 votes)

Hard to play? Try these video lessons and learn fast.
                (Live)
Band- 12 Stones
Song- Lifeless (live)
CD- Live At The Brewery
Tuning- Drop C

this is the live version, from way before the release 
of Potter's Field. The cd isn't out yet, so i don't 
know how it will compare to the studio release.


intro/verse
e|------------------------------------------------------------------------
b|------------------------------------------------------------------------
g|--------7---7/10--------10---10/12--------------------------------------
d|-0--0-0---0------8--8-8----0--------------------------------------------
a|-0--0-0-5-0-5/8--8--8-8-8--0-8-/10--------------------------------------
e|-0--0-0---0------8--8-8----0--------------------------------------------
chorus
e|------------------------------------------------------------------------
b|------------------------------------------------------------------------
g|--------------------------------------10-10-10--------10-10-10----------
d|-8--8-8-8--8-8-8--8-8-8-10-10--0--0-0----------0--0-0-------------------
a|-8--8-8-8--8-8-8--8-8-8-10-10--0--0-0-8--8--8--0--0-0-8--8--8-----------
e|-8--8-8-8--8-8-8--8-8-8-10-10--0--0-0----------0--0-0-------------------

interlude (this part's hard to hear so i don't know if it's right
e|------------------------------------------------------------------------
b|------------------------------------------------------------------------
g|-7--7-7-7-7--7-7-7--3-3-3/5-5-5-3-3-3/5-5-5-----------------------------
d|-7--7-7-7-7--7-7-7--3-3-3/5-5-5-3-3-3/5-5-5-----------------------------
a|-5--5-5-5-5--5-5-5--1-1-1/3-3-3-1-1-1/3-3-3-----------------------------
e|------------------------------------------------------------------------

solo (i have no idea, but i think this is the backup)
e|------------------------------------------------------------------------
b|------------------------------------------------------------------------
g|-7--7-7--7--7-7--7-10-101010-101010-5-5-5-5--5-5-5--5--5-5-5--5-5-5-----
d|-7--7-7--7--7-7--7-10-101010-101010-5-5-5-5--5-5-5--5--5-5-5--5-5-5-----
a|-5--5-5--5--5-5--5-8--8-8-8--8-8-8--3-3-3-3--3-3-3--3--3-3-3--3-3-3-----
e|------------------------------------------------------------------------

*-------------
*-last time---
*-------------
*-8---8-10----
*-8---8-10----
*-8---8-10----

hope you like it. once the cd comes out im sure there will be changes, but 
this works for now
            
Hard to play? Try these video lessons and learn fast. | Correct




comments powered by Disqus
↑ Back to top | Tablatures and chords are parodies/interpretations of the original songs. You may use it for private study, scholarship, research or language learning purposes only