» » »

12 Stones, Lie To Me Bass tabs (ver.1)

Artists:  A B C D E F G H I J K L M N O P Q R S T U V W X Y Z # 

Lie To Me Bass tabs (ver.1)

12 Stones Tabs
 Rating:
4/5 (4 votes)
Lie To Me lessons Tabs too difficult? Try these video lessons and learn fast
                

Tuning:DGCF

  Intro/verse
G|---------------------------------------------------------------------------|
D|---------------------------------------------------------------------------|
A|---------------------------------------------------------------------------|
E|-9-9-7--7-7-7-7--5-5-0--0-0-0-0--------------------------------------------|

  Chorus
G|---------------------------------------------------------------------------|
D|---------------------------------------------------------------------------|
A|---------------------------------------------------------------------------|
E|-2-2-2/5-5-5-5--0-0-0-7-7-7-7----------------------------------------------|

  (well goodbye....)
G|---------------------------------------------------------------------------|
D|---------------------------------------------------------------------------|
A|---------------------------------------------------------------------------|
E|-2~~~~~~---2-2/4h5---------------------------------------------------------|

  (why'd you have to up and run away...)
G|---------------------------------------------------------------------------|
D|---------------------------------------------------------------------------|
A|---------------------------------------------------------------------------|
E|-9-9--7-7--6-6--6-6--6h7---------------------------------------------------|

  (just when i put my gaurd away.....)
G|---------------------------------------------------------------------------|
D|---------------------------------------------------------------------------|
A|---------------------------------------------------------------------------|
E|-5-5-5-5-5-0-0-0-0-7-7-7-7-7p4---------------------------------------------|


  (stop part right afte the bridge)
G|---------------------------------------------------------------------------|
D|---------------------------------------------------------------------------|
A|---------------------------------------------------------------------------|
E|-2-2-----5-5---------------------------------------------------------------|


That's it. Very very simple song to play. Listen to the song for the exact rythm, but 
the notes are there.
I promise that this is 100000% correct.

| /  slide up
| \  slide down
| h  hammer-on
| p  pull-off
| ~  vibrato
| +  harmonic
| x  Mute note
            
Submit corrections

comments powered by Disqus
↑ Back to top | 12 Stones Bass for Lie To Me. Lyrics for acoustic guitar and electric guitar. Tablatures and chords are parodies/interpretations of the original songs. You may use it for private study, scholarship, research or language learning purposes only