>
 >
Let Go 2

Let Go 2 Guitar Tabs

12 Stones - Let Go 2 chords, tabs, tablatures, lyrics

Guitar lessons | Add/correct | Request | Top 50 tabs Artists:  A B C D E F G H I J K L M N O P Q R S T U V W X Y Z 0-9

Let Go 2 Guitar Tabs – 12 Stones

CD, Sheet music, Poster

Do you like Let Go 2? Share with your friends now
TabsTabs v2Tabs v3Tabs v4
let go by 12 stones
drop c tuning (CGCFAD)

intro  (fingerpicking)
D/----------------------------------------------------------------|
A/-8----8--8/10--7----6--6/8--3-5--5---5--3/5-5-0---8----8--8/10--|
F/---9---9---------7---7---------5--5-----------------9---9-------|
C/----9-------------7-------------5-----5--------------9----------|
G/-7-------------5------------3---------------------7-------------|
C/----------------------------------------------------------------|

D/---------------|
A/-7---6--6/8--3-|
F/---7--7--------|
C/----7----------|
G/-5-----------3-|
C/---------------|

verse
D/--------------------------------------|
A/-8-8-x-8-8--7-7-x-7--5-5-x-5--7-7-x-7-|
F/-9-9-x-9-9--7-7-x-7--5-5-x-5--7-7-x-7-|
C/-9-9-x-9-9--7-7-x-7--5-5-x-5--7-7-x-7-|
G/-7-7-x-7-7--5-5-x-5--3-3-x-3--5-5-x-5-|
C/--------------------------------------|

fills in 1st verse (in order)
  1st fill   (0:13)
D/---------------------------------------12-12v----------------------------|
A/----------------------------------12-15-------15p12----------------------|
F/-----------12-14-12-14-12---12-14-------------------14-12---12-----------|
C/-14--12-14---------------14-------------------------------14--14-14-12-14|
G/-------------------------------------------------------------------------|
C/-------------------------------------------------------------------------|

2nd fill   (0:36)
D/-------------------------------|
A/-------------------------------|
F/-------12--12-14--14b-14-12----|
C/-12-14---14-----------------14-|
G/-------------------------------|
C/-------------------------------|

3rd fill    (1:03)
D/-------------------------|
A/-------------------------|
F/-------------------------|
C/------------12-----------|
G/-------12-14--14-12-10---|
C/-12-14----------------14-|

chorus
D/---------------------------------------------------------------------------|
A/---------------------------------------------------------------------------|
F/-----------------------5-5-5-5-5-5-5----------------------7/9-9-9-11-11-11-|
C/-5-5-5-5-5--0-0-0-0-0--5-5-5-5-5-5-5--0-4-5--5-5-5--0-0-0-x-x-x-x-x--x--x--|
G/-5-5-5-5-5--0-0-0-0-0--3-3-3-3-3-3-3--0-4-5--5-5-5--0-0-0-5/7-7-7-9--9--9--|
C/-5-5-5-5-5--0-0-0-0-0-----------------0-4-5--5-5-5--0-0-0------------------|

D/----------------------|
A/-------------12-15-12-|
F/-12-12-14-14----------|
C/-x--x--x--x-----------|
G/-10-10-12-12----------|
C/----------------------|

fills in 2nd verse

1st fill    (1:45)
D/---------------------------------------------------------------------|
A/---------------------------------------------------------------------|
F/--------------------------------12-----------------------------------|
C/-14--12h14-12-12h14-12-----12-14--14--14-12-12-14---12--12-----------|
G/----------------------12-14-----------------------14--14--14-12-10---|
C/------------------------------------------------------------------14-|

2nd fill     (2:08)
D/---------------------------------------|
A/-------12-15-15-15p12------------------|
F/-12-14---------------14-14p12----------|
C/------------------------------14p12-14-|
G/---------------------------------------|
C/---------------------------------------|

3rd fill     (2:35)
D/------------------------------|
A/------------------------------|
F/------------------------------|
C/----------12-14-12------------|
G/-10-12-14----------14-12-10---|
C/---------------------------14-|

bridge
D/--------------------------------------------------------------------|
A/--------------------------------------------------------------------|
F/-7-7-7-7----5-5-5-5--9-9-9-11--7-7-7-7--7-7-7-7----5-5-5-5--2-2-2-2-|
C/-7-7-7-7-7--5-5-5-5--9-9-9-11--7-7-7-7--7-7-7-7-7--5-5-5-5--2-2-2-2-|
G/-5-5-5-5-7--3-3-3-3--7-7-7-9---5-5-5-5--5-5-5-5-7--3-3-3-3--0-0-0-0-|
C/---------7--------------------------------------7-------------------|

D/------------|
A/------------|
F/-4-4--5-5-5-|
C/-4-4--5-5-5-|
G/-2-2--3-3-3-|
C/------------|

outro same as intro

                               PLEASE RATE!!!!
                                 AND LEAVE YOUR COMMENTS!!





Comments


Popular 12 Stones tabs & chords
Running Out Of Pain Chords
Bitter 3 Tabs
Broken 9 Tabs
Far Away 2 Tabs
Far Away 3 Tabs
In My Head Tabs
Shadows Tabs
The Way I Feel 3 Tabs
Arms Of A Stranger Ukulele
Way I Fell Ukulele


Song lyrics



↑ Back to top | Tablatures and chords are parodies/interpretations of the original songs. You may use it for private study, scholarship, research or language learning purposes only
© 2014 AZChords.com Contact us | Privacy policy | DMCA | Add/correct tabs | Request tabs | Top 50 tabs