» » »

12 Stones, Let Go Tabs (ver.2)

Artists:  A B C D E F G H I J K L M N O P Q R S T U V W X Y Z # 

Let Go Tabs (ver.2)

12 Stones Tabs
 Rating:
3.4/5 (10 votes)
Let Go lessons Tabs too difficult? Try these video lessons and learn fast
1
                -------------------------------------------------------------------------------
                             Let Go - 12 Stones
-------------------------------------------------------------------------------

Tuning: Drop C   C-G-C-F-A-D

This is from the unplugged version, I imagine they are very similar.


Intro: finger picking style

e|---------------------------------------------------------------------------|
B|-8----8---8/10--7-----7----7/8---3----5----5----3---3/5--5-----------------|
G|---9----9---------7-----7----------5----5----5----5------------------------|  
D|-----9--------------7----------------5----5----5---------------------------|
A|-7--------------5----------------3-----------------------------------------|
E|---------------------------------------------------------------------------|

e|---------------------------------------------------------------------------|
B|-8----8---8/10--7-----7----7/8---3-----------------------------------------|
G|---9----9---------7-----7--------------------------------------------------|
D|-----9--------------7------------------------------------------------------|
A|-7--------------5----------------3-----------------------------------------|
E|---------------------------------------------------------------------------|

Verse: (just have to listen to song to get the strumming pattern)
e|---------------------------------------------------------------------------|
B|---------------------------------------------------------------------------|
G|-9-9-x-9---7-7-x-7--7\5-5-x-5----------------------------------------------|
D|-9-9-x-9---7-7-x-7--7\5-5-x-5----------------------------------------------|
A|-7-7-x-7---5-5-x-5--5\3-3-x-3----------------------------------------------|
E|---------------------------------------------------------------------------|

Solo: This isn't completely correct.  I could not figure out a few parts.
      It is also just the first one.  The others are very close to this one.
e|-----------------------------------------------------12-12-----------------|
B|----------------------------------------------15p12------------------------|
G|-------12--14--12--14^--12--14--12-----12h14-------------------------------|
D|-12h14------------------------------14-------------------------------------|
A|---------------------------------------------------------------------------|
E|---------------------------------------------------------------------------|

e|--12-----------------------------------------------------------------------|
B|----15--12-15-12-----------------------------------------------------------|
G|------------------14--12--14p12--------------------------------------------|
D|--------------------------------14-12-14-----------------------------------|
A|---------------------------------------------------------------------------|
E|---------------------------------------------------------------------------|

Chorus:
e|---------------------------------------------------------------------------|
B|---------------------------------------------------------------------------|
G|----------55555------------------------------------------------------------|
D|-555--000-55555--0-4-5-----------------------------------------------------|
A|-555--000-33333--0-4-5-----------------------------------------------------|
E|-555--000--------0-4-5-----------------------------------------------------|

Bridge:
e|---------------------------------------------------------------------------|
B|---------------------------------------------------------------------------|
G|-7777---5555--999/11--7777--7777---5555--2222--4-5555----------------------|
D|-7777-7-5555--999/11--7777--7777-7-5555--2222--4-5555----------------------|
A|-5555-7-3333--777/9---5555--5555-7-3333--0000--2-3333----------------------|
E|------7--------------------------7-----------------------------------------|

This tab is pretty close.  Any comments, questions, or corrections, feel free

| /  slide up
| \  slide down
| h  hammer-on
| p  pull-off
| ~  vibrato
| +  harmonic
| x  Mute note
===============================================================================
            
Submit corrections

comments powered by Disqus
↑ Back to top | 12 Stones Tabs for Let Go. Lyrics for acoustic guitar and electric guitar. 1 Tablatures and chords are parodies/interpretations of the original songs. You may use it for private study, scholarship, research or language learning purposes only