» » »

12 Stones, Infected Tabs (ver.1)

Artists:  A B C D E F G H I J K L M N O P Q R S T U V W X Y Z # 

Infected Tabs (ver.1)

12 Stones Tabs
Rating:
0/5 (0 votes)
Infected lessons Tabs too difficult? Try these video lessons and learn fast
                into: lead (x2)
D-----------------------------------------------------------------|
A-----------------------------------------------------------------|
F-----------------------------------------------------------------|
C-0---0---7---7---6*~~~~~-0---0---7---7---6*~~~~~-3---3---5*~~~~~-|
G-----------------------------------------------------------------|
C-----------------------------------------------------------------|

D-----------------------------------------------------------------|
A-----------------------------------------------------------------|
F-----------------------------------------------------------------|
C-0---0---7---7---6*~~~~~-0---0---3---3---5---5---6---6-----------|
G---------------------------------------------------------6~~~~~~-|
C-----------------------------------------------------------------|

D-----------------------------------------------------------------|
A-----------------------------------------------------------------|
F-----------------------------------------------------------------|
C-0---0---7---7---6*~~~~~-0---0---7---7---6*~~~~~-3---3---5*~~~~~-|
G-----------------------------------------------------------------|
C-----------------------------------------------------------------|

D-----------------------------------------------------------------|
A-----------------------------------------------------------------|
F-----------------------------------------------------------------|
C-----------------5*------------------------------5*--------------|
G-3---3---3---3-------3---3---3---2---2---2---2-------2---2---2---|
C-----------------------------------------------------------------|

verse 1: lead (x2)
D-----------------------------------------------------------------|
A-----------------------------------------------------------------|
F-----------------------------------------------------------------|
C-3---0~~~~~~-3-0-3---0---------------3-0-3---0---3---0-----------|
G-3---0~~~~~~-3-0-3---0---------------3-0-3---0---3---0-----------|
C-3---0~~~~~~-3-0-3---0---------------3-0-3---0---3---0---5*~~~~~-|
pm            . . .                   . . .

D-----------------------------------------------------------------|
A-----------------------------------------------------------------|
F-------------------------------------------------5-7-5-----------|
C-3---0~~~~~~-3-0-3---0---------------------------------7-3-5-3-0-|
G-3---0~~~~~~-3-0-3---0-------------------------------------------|
C-3---0~~~~~~-3-0-3---0-------------------------------------------|
pm            . . .

Pre Chorus: Rhythm
D-----------------------------------------------------------------|
A-----------------------------------------------------------------|
F-7---7---7---5---5---5---8---8---8---7---7---7---5---5---7---7---|
C-x---x---x---x---x---x---x---x---x---x---x---x---x---x---x---x---|
G-5---5---5---3---3---3---6---6---6---5---5---5---3---3---5---5---|
C-----------------------------------------------------------------|

D-----------------------------------------------------------------|
A-----------------------------------------------------------------|
F-7---7---7---5---5---5---8---8---8-------------------------------|
C-x---x---x---x---x---x---x---x---x-------------------------------|
G-5---5---5---3---3---3---6---6---6-------------------------------|
C-----------------------------------------------------------------|

Chorus: lead
D-----------------------------------------------------------------|
A-----------------------------------------------------------------|
F-----------------------------------------------------------------|
C-0~~~~~~-0~~~~~~-x---x-------x---0~~~~~~-0~~~~~~-----------------|
G-0~~~~~~-0~~~~~~-x---x-------x---0~~~~~~-0~~~~~~-----------------|
C-0~~~~~~-0~~~~~~-x---x-------x---0~~~~~~-0~~~~~~-----------------|

D-----------------------------------------------------------------|
A-----------------------------------------------------------------|
F-----------------------------------------------------------------|
C-0~~~~~~-0~~~~~~-x---x-------x---0~~~~~~-0~~~~~~-----------------|
G-0~~~~~~-0~~~~~~-x---x-------x---0~~~~~~-0~~~~~~-----------------|
C-0~~~~~~-0~~~~~~-x---x-------x---0~~~~~~-0~~~~~~-----------------|

D-----------------------------------------------------------------|
A-15~~~~~-15~~~~~-15~~~~~-15~~~~~-13~~~~~-15~~~~~-18~~~~~-15~~~~~-|
F-----------------------------------------------------------------|
C-----------------------------------------------------------------|
G-----------------------------------------------------------------|
C-----------------------------------------------------------------|

D-----------------17~~~~~---------18~~~~~---------17~~~~~-15~~~~~-|
A-13~~~~~-13~~~~~---------13~~~~~---------14~~~~~-----------------|
F-----------------------------------------------------------------|
C-----------------------------------------------------------------|
G-----------------------------------------------------------------|
C-----------------------------------------------------------------|

D-----------------------------------------------------------------|
A-----------------------------------------------------------------|
F-----------------------------------------------------------------|
C-0~~~~~~-0~~~~~~-x---x-------x---0~~~~~~-0~~~~~~-----------------|
G-0~~~~~~-0~~~~~~-x---x-------x---0~~~~~~-0~~~~~~-----------------|
C-0~~~~~~-0~~~~~~-x---x-------x---0~~~~~~-0~~~~~~-----------------|

D-----------------------------------------------------------------|
A-----------------------------------------------------------------|
F-----------------------------------------------------------------|
C-0~~~~~~-0~~~~~~-x---x-------x---0~~~~~~-0~~~~~~-----------------|
G-0~~~~~~-0~~~~~~-x---x-------x---0~~~~~~-0~~~~~~-----------------|
C-0~~~~~~-0~~~~~~-x---x-------x---0~~~~~~-0~~~~~~-----------------|

D-----------------------------------------------------------------|
A-15~~~~~-15~~~~~-15~~~~~-15~~~~~-13~~~~~-15~~~~~-18~~~~~-15~~~~~-|
F-----------------------------------------------------------------|
C-----------------------------------------------------------------|
G-----------------------------------------------------------------|
C-----------------------------------------------------------------|

D-----------------17~~~~~---------18~~~~~---------17~~~~~-15~~~~~-|
A-13~~~~~-13~~~~~---------13~~~~~---------14~~~~~-----------------|
F-----------------------------------------------------------------|
C-----------------------------------------------------------------|
G-----------------------------------------------------------------|
C-----------------------------------------------------------------|

Bridge: lead
D-----------------------------------------------------------------|
A-----------------------------------------------------------------|
F-----------------------------------------------------------------|
C-0---0---7---7---6*~~~~~-0---0---7---7---6*~~~~~-3---3---5*~~~~~-|
G-----------------------------------------------------------------|
C-----------------------------------------------------------------|

D-----------------------------------------------------------------|
A-----------------------------------------------------------------|
F-----------------------------------------------------------------|
C-0---0---7---7---6*~~~~~-0---0---3---3---5---5---6---6-----------|
G---------------------------------------------------------6~~~~~~-|
C-----------------------------------------------------------------|

D-----------------------------------------------------------------|
A-----------------------------------------------------------------|
F-----------------------------------------------------------------|
C-0---0---7---7---6*~~~~~-0---0---7---7---6*~~~~~-3---3---5*~~~~~-|
G-----------------------------------------------------------------|
C-----------------------------------------------------------------|

D-----------------------------------------------------------------|
A-----------------------------------------------------------------|
F-----------------------------------------------------------------|
C-----------------5*----------------------------------------------|
G-3---3---3---3-------3---3---3---2---2---2---2-------------------|
C-----------------------------------------------------------------|

Guitar Solo

D-----------------------------------------------------------------|
A-------------10/12\10------------------------15------------------|
F-10----------10/12\10------10-12-12b~~~~-14------14--17p14p12-14-|
C-----12~~~~~-----------12----------------------------------------|
G-----------------------------------------------------------------|
C-----------------------------------------------------------------|

D-----------------------------------------|
A-----------------------------------------|
F-12h14p12-------10--14p10-12p10----10----|
C----------15-14-----------------12----12-|
G-----------------------------------------|
C-----------------------------------------|

D-------------------------------------------------------------|
A-10----------------10----------------------------------------|
F-10----------10-12-10----------------------------12----------|
C-----12~~~~~-----------12--10-12-12--10-10-10-10----10-10-10-|
G-------------------------------------------------------------|
C-------------------------------------------------------------|

D-------------------------|
A-------------------------|
F-------------------------|
C-10-12-10----------------|
G----------12-10\~~~~~~~~-|
C-------------------------|

D-----------------------------------------------------------------|
A-13~~~-13~~~-10~~~-10~~~-10~~~~~-13~~~-13~~~-15~~~-15~~~-15~~~~~-|
F-16b~~-16b~~-13b~~-13b~~-13b~~~~-16b~~-16b~~-18b~~-18b~~-18b~~~~-|
C-----------------------------------------------------------------|
G-----------------------------------------------------------------|
C-----------------------------------------------------------------|

D-12~~~-12~~~-13~~~-13~~~-15~~~~~-------------------------------15--|
A-16b~~-16b~~-17b~~-17b~~-19b~~~~-13p10----13p10------------15------|
F---------------------------------------12-------12-14--17----------|
C-------------------------------------------------------------------|
G-------------------------------------------------------------------|
C-------------------------------------------------------------------|

D-16b-16b-16b-16b-16b-16b-16b-16b-|
A---------------------------------|
F---------------------------------|
C---------------------------------|
G---------------------------------|
C---------------------------------|

Pre Chorus 2
Rhythm
D-----------------------------------------------------------------|
A-----------------------------------------------------------------|
F-7---7---7---5---5---5---8---8---8---7---7---7---5---5---7---7---|
C-x---x---x---x---x---x---x---x---x---x---x---x---x---x---x---x---|
G-5---5---5---3---3---3---6---6---6---5---5---5---3---3---5---5---|
C-----------------------------------------------------------------|

lead(echo effect)
D-16b\~~~---------------------------------------------------------|
A-----------------------------------------------------------------|
F-----------------------------------------------------------------|
C-----------------------------------------------------------------|
G-----------------------------------------------------------------|
C-----------------------------------------------------------------|

Outro
D-----------------------------------------------------------------|
A-----------------------------------------------------------------|
F-----------------------------------------------------------------|
C-0---0---7---7---6*~~~~~-0---0---7---7---6*~~~~~-3---3---5*~~~~~-|
G-----------------------------------------------------------------|
C-----------------------------------------------------------------|

D-----------------------------------------------------------------|
A-----------------------------------------------------------------|
F-----------------------------------------------------------------|
C-0---0---7---7---6*~~~~~-0---0---7---7---6*~~~~~-3---3---5*~~~~~-|
G-----------------------------------------------------------------|
C-----------------------------------------------------------------|

D-----------------------------------------------------------------|
A-----------------------------------------------------------------|
F-----------------------------------------------------------------|
C-0---0---7---7---6*~~~~~-0---0---7---7---6*~~~~~-3---3---5*~~~~~-|
G-----------------------------------------------------------------|
C-----------------------------------------------------------------|

D-----------------------------------------------------------------|
A-----------------------------------------------------------------|
F-----------------------------------------------------------------|
C-0---0---7---7---6*~~~~~-0---0---7---7---6*~~~~~-----------------|
G-----------------------------------------------------------------|
C-----------------------------------------------------------------|
            
Submit corrections

comments powered by Disqus
↑ Back to top | 12 Stones Tabs for Infected. Lyrics for acoustic guitar and electric guitar. Tablatures and chords are parodies/interpretations of the original songs. You may use it for private study, scholarship, research or language learning purposes only