» » »

In Closing Tabs (ver.1)

Artists:  A B C D E F G H I J K L M N O P Q R S T U V W X Y Z # 

In Closing Tabs (ver.1)

12 Stones
Rating:
0/5 (0 votes)

Hard to play? Try these video lessons and learn fast.
                in closing by 12 stones
Drop C tuning (CGCFAD)


intro/verse (distorted)
  play this 3 times.......then the 4th time play this
D/-----------------------|-------------------------|
A/-----------------------|-------------------------|
F/---------------5-5-5-5-|---------------5-5\7-7-7-|
C/-0-0-0-0-3-0-----------|-0-0-0-0-3-0-------------|
G/-------------3---------|-------------3-----------|
C/-----------------------|-------------------------|

chorus
D/-------------------------------------------------------------|
A/-------------------------------------------------------------|
F/---------5-5-5-5--8-8-8-8-8-8-8---------5-5-5-5--------------| x2
C/-0-0-x-x-5-5-5-5--8-8-8-8-8-8-8-0-0-x-x-5-5-5-5--8-8-8-8-8-8-|
G/-0-0-x-x-3-3-3-3--6-6-6-6-6-6-6-0-0-x-x-3-3-3-3--6-6-6-6-6-6-|
C/-0-0-x-x------------------------0-0-x-x----------6-6-6-6-6-6-|

THEN PLAY 2ND VERSE

THEN PLAY THE CHORUS

bridge (interlude)

D/-------------------------------------------------------------------------|
A/-------------------------------------------------------------------------|
F/-7-x-x-7-x-x-7-x-x-7-x-x-9-x-x-9-x-x-9-x-x-9-x-x-10-x-x-10-x-x-10-x-x-10-|
C/-7-x-x-7-x-x-7-x-x-7-x-x-9-x-x-9-x-x-9-x-x-9-x-x-10-x-x-10-x-x-10-x-x-10-|
G/-5-x-x-5-x-x-5-x-x-5-x-x-7-x-x-7-x-x-7-x-x-7-x-x-8--x-x-8--x-x-8--x-x-8--|
C/-------------------------------------------------------------------------|

-----------------------------|
-----------------------------|
-x-x-12-x-x-12-x-x-12-x-x-12-| x3
-x-x-12-x-x-12-x-x-12-x-x-12-|
-x-x-10-x-x-10-x-x-10-x-x-10-|
-----------------------------|

when you are done with that play this
------------------------------------------------|
------------------------------------------------| then go back to the verse
---------------5-5-5-5----------------5-5\7-7-7-|
-0-0-0-0-3-0------------0-0-0-0-3-0-------------|
-------------3----------------------3-----------|
------------------------------------------------|

PLAY CHORUS

outro
D/---------------------|
A/---------------------|
F/-------5-5-5-7-7-7-5-|
C/-------5-5-5-5-5-5-5-|
G/-------3-3-3-3-3-3-3-|
C/-0-0-0---------------|
            
Hard to play? Try these video lessons and learn fast. | Correct




comments powered by Disqus
↑ Back to top | Tablatures and chords are parodies/interpretations of the original songs. You may use it for private study, scholarship, research or language learning purposes only