» » »

Home Tabs (ver.2)

Artists:  A B C D E F G H I J K L M N O P Q R S T U V W X Y Z # 

Home Tabs (ver.2)

12 Stones
Rating:
3/5 (2 votes)

Tabs too difficult? Try these video lessons and learn fast.
                12stones - "Home"
Tuning: CGCFAD
PM --- = palm mute
h = hammer on

Intro: X4
|----------------------|
|----------------------|
|----------------------|
|-------------10-------|
|---5--8--7-7----7---7-|
|-0--0--0----------0---|

Verse: X2
|----------------------       |-----------------|
|----------------------       |-----------------|
|----------------------       |-10------12------|
|-------------10-------  X3   |--8------10------|  X1
|---5--8--7-7----7---7-       |--8-(X3)-10-(X6)-|
|-0--0--0----------0---       |--8------10------|

Pre-Chorus: X2
|-----------------|
|-----------------|
|-10------12------|
|--8------10------|
|--8-(X6)-10-(X6)-|
|--8------10------|

Chorus: X2
|-----------------------------------------------------------|
|-----------------------------------------------------------|
|-----------------------------------------------------------|
|-0-0-0-10h12-0-10h12-0-5h3-0-0-0-10h12-0-10h12-10-10-12-12-|
|-0-0-0-10h12-0-10h12-0-5h3-0-0-0-10h12-0-10h12-10-10-12-12-|
|-0-0-0-10h12-0-10h12-0-5h3-0-0-0-10h12-0-10h12-10-10-12-12-|
PM  ---       -       -       ---       -

Solo(part 1): X2
|-----------------------------------|
|----------8-8-8-6-6-6-5-5-5--------|
|--7-7-7-7------------------5-5-5---|
|-----------------------------------|
|-----------------------------------|
|-----------------------------------|
PM----------------------------------|

|---------------------------------------|
|----------8-8-8-6-6-6-5-5-5-10-10-10---|
|--7-7-7-7------------------------------|
|---------------------------------------|
|---------------------------------------|
|---------------------------------------|
PM--------------------------------------|

Solo(Part 2): X2
|-------------15-15-15-13-13-13-12-12-12---------|
|-15-15-15-15---------------------------13-13-13-|
|------------------------------------------------|
|------------------------------------------------|
|------------------------------------------------|
|------------------------------------------------|

|-------------15-15-15-13-13-13-12-12-12-17-17-17--|
|-15-15-15-15--------------------------------------|
|--------------------------------------------------|
|--------------------------------------------------|
|--------------------------------------------------|
|--------------------------------------------------|

On 2nd time end solo with this:
|-17-(let ring)-
|---------------|
|---------------|
|---------------|
|---------------|
|---------------|

There is a half-ass bridge in there. It pretty much the same as the Chorus. Just listen 
the song.

Play in this order:
Intro
Verse
Pre-Chorus
Chorus
Verse
Pre-Chorus
Chorus
"Bridge"
Solo
Chorus

End with this:
|--------------|
|--------------|
|--------------|
|-0------------|
|-0-(Let Ring)-
|-0------------
            
Tabs too difficult? Try these video lessons and learn fast.


comments powered by Disqus
↑ Back to top | Tablatures and chords are parodies/interpretations of the original songs. You may use it for private study, scholarship, research or language learning purposes only