» » »

12 Stones, Games You Play Tabs (ver.2)

Artists:  A B C D E F G H I J K L M N O P Q R S T U V W X Y Z # 

Games You Play Tabs (ver.2)

12 Stones Tabs
 Rating:
4/5 (4 votes)
Games You Play lessons Tabs too difficult? Try these video lessons and learn fast
1
                Intro:
D|---------------------------------------------------------------------------------|
A|---------------------------------------------------------------------------------|
F|---------------------------------------------------------------------------------|
C|0---7p5\2p0--2h3-5p3-2p0--0---7p5\2p0--2h3-3h5-5h7-------------------------------|
G|0----------00---0---0-----0----------00---0---0----------------------------------|
C|0----------00---0---0-----0----------00---0---0----------------------------------|
             ..   .   .                ..   .   .
Verse:
D|----------------------------------------------------------------------------|
A|----------------------------------------------------------------------------|
F|----------------------------------------------------------------------------|
C|7-7-7-7-7-7-7-7-7-7-7-7-7-7-7-7-7-7-----------------------------------------|
G|7-7-7-7-7-7-7-7-7-7-7-7-7-7-7-7-7-7-----------------------------------------|
C|7-7-7-7-7-7-7-7-7-7-7-7-7-7-7-7-7-7-----------------------------------------|

D|---------------------------------------------------------------------------------|
A|---------------------------------------------------------------------------------|
F|---------------------------------------------------------------------------------|
C|0---7p5\2p0--2h3-5p3-2p0--0---7p5\2p0--2h3-3h5-5h7-------------------------------|
G|0----------00---0---0-----0----------00---0---0----------------------------------|
C|0----------00---0---0-----0----------00---0---0----------------------------------|
             ..   .   .                ..   .   .

D|------------------------------------------------------------------------------|
A|------------------------------------------------------------------------------|
F|------------------------------------------------------------------------------|
C|7-7-7-7-7-7-7-7-7-7-7-7-7-7-7-7-7-7-------------------------------------------|
G|7-7-7-7-7-7-7-7-7-7-7-7-7-7-7-7-7-7-------------------------------------------|
C|7-7-7-7-7-7-7-7-7-7-7-7-7-7-7-7-7-7-------------------------------------------|

D|---------------------------------------------------------------------------------|
A|---------------------------------------------------------------------------------|
F|---------------------------------------------------------------------------------|
C|0---7p5\2p0--2h3-5p3-2p0--0---7p5\2p0--2h3-3h5-5h7-------------------------------|
G|0----------00---0---0-----0----------00---0---0----------------------------------|
C|0----------00---0---0-----0----------00---0---0----------------------------------|
             ..   .   .                ..   .   .

Pre-chorus: release palm mutes slowly
D|----------------------------------------------------------------------|
A|----------------------------------------------------------------------|
F|----------------------------------------------------------------------|
C|7-7-7-7-7-7-7-7-7-7-7-7-10-10-10-10-10-10-----------------------------|
G|7-7-7-7-7-7-7-7-7-7-7-7-10-10-10-10-10-10-----------------------------|
C|7-7-7-7-7-7-7-7-7-7-7-7-10-10-10-10-10-10-----------------------------|
  . . . . . . . . . . . .

Chorus:
D|--------------------------------------------|
A|-10\----------------------------------------|
F|-9-\9/10~12\7/8~-77/9~1010x-99x-1212~-------|
C|-7-\9/10~12\7/8~-77/9~1010x-99x-1212~-------|2x
G|----7/8~-10\5/6~-55/7~-88-x-77x-1010~-------|
C|--------------------------------------------|
Intro
Verse
Intro
Verse
Pre-chorus
Chorus


Bridge (lead guitar)
|---------------------------------------------------------------------------|
|-16b~-17b~-16b~-17b~-14b~14b~14b~----(4x)----------------------------------|
|---------------------------------------------------------------------------|
|---------------------------------------------------------------------------|
|---------------------------------------------------------------------------|
|---------------------------------------------------------------------------|

Bridge (rhythm)will be tabbed at a later date!!!! Sorry!!!!!!

Chorus
Intro
At the very end, instead of the intro, play this:
D|----------------------------------------------------------------------------------|
A|----------------------------------------------------------------------------------|
F|----------------------------------------------------------------------------------|
C|0---7p5\2p0--2h3-5p3-2p0--0---7p5\2p0--2h3--5p2---2p0x----------------------------|
G|0----------00---0---0-----0----------002h30-5p2-0-2p0x----------------------------|
C|0----------00---0---0-----0----------00---0-----0---------------------------------|
             ..   .   .                ..   .   .

End!!!

I hope this clears anything up for anyone. I was looking at the other tab, and saw it 
12STONESLOVER33
            
Submit corrections

comments powered by Disqus
↑ Back to top | 12 Stones Tabs for Games You Play. Lyrics for acoustic guitar and electric guitar. 1 Tablatures and chords are parodies/interpretations of the original songs. You may use it for private study, scholarship, research or language learning purposes only