» » »

12 Stones, Games You Play Tabs (ver.1)

Artists:  A B C D E F G H I J K L M N O P Q R S T U V W X Y Z # 

Games You Play Tabs (ver.1)

12 Stones Tabs
 Rating:
4/5 (4 votes)
Games You Play lessons Tabs too difficult? Try these video lessons and learn fast
                -------
tuning: Drop C (C g c f a d)
-------
Key:
p = pull off
h = hammer on
\ = slide down
. = palm mute
x = dead note
The chorus i tabbed is kinda iffy, but it sounds good when i play with it, so
thats what i tabbed. Knock yourself out!!
Intro:
D|---------------------------------------------------------------------------------|
A|---------------------------------------------------------------------------------|
F|---------------------------------------------------------------------------------|
C|0---7p5\2p0--2h3-5-2p0--0---7p5\2p0-2h3-3h5-5h7----------------------------------|
G|0-----------------------------0--------------------------------------------------|
C|0-----------------------------0--------------------------------------------------|

Verse:
D|----------------------------------------------------------------------------|
A|----------------------------------------------------------------------------|
F|----------------------------------------------------------------------------|
C|7-7-7-7-7-7-7-7-7-7-7-7-7-7-7-7-7-7-----------------------------------------|
G|7-7-7-7-7-7-7-7-7-7-7-7-7-7-7-7-7-7-----------------------------------------|
C|7-7-7-7-7-7-7-7-7-7-7-7-7-7-7-7-7-7-----------------------------------------|

D|-------------------------------------------------|
A|-------------------------------------------------|
F|-------------------------------------------------|
C|0---7p5\2p0--2h3-5-2p0--0---7p5\2p0-2h3-3h5-5h7--|
G|0-----------------------------0------------------|
C|0-----------------------------0------------------|

D|------------------------------------------------------------------------------|
A|------------------------------------------------------------------------------|
F|------------------------------------------------------------------------------|
C|7-7-7-7-7-7-7-7-7-7-7-7-7-7-7-7-7-7-------------------------------------------|
G|7-7-7-7-7-7-7-7-7-7-7-7-7-7-7-7-7-7-------------------------------------------|
C|7-7-7-7-7-7-7-7-7-7-7-7-7-7-7-7-7-7-------------------------------------------|


Pre-chorus: release palm mutes slowly
D|----------------------------------------------------------------------|
A|----------------------------------------------------------------------|
F|----------------------------------------------------------------------|
C|7-7-7-7-7-7-7-7-7-7-7-7-7-7-7-7-7-7-----------------------------------|
G|7-7-7-7-7-7-7-7-7-7-7-7-7-7-7-7-7-7-----------------------------------|
C|7-7-7-7-7-7-7-7-7-7-7-7-7-7-7-7-7-7-----------------------------------|
 .   .  .  .  .   .  .  .  .   .   .  .

Chorus:
D|--------------------------------------------------|
A|--------------------------------------------------|
F|--------------------------------------------------|
C|77-00-3~-3-3-3--55-00-1~-1-1-1~-5-1~-11x-00x-33~--|
G|77-00-3~-3-3-3--55-00-1~-1-1-1~-5-1~-11x-00x-33~--|
C|77-00-3~-3-3-3--55-00-1~-1-1-1~ 5-1~-11x-00x-33~--|

Intro
Verse
Intro
Verse
Pre-chorus
Chorus
I havent figured out the bridge/ solo part thingy so bear with me Ill post it as
soon as I can. Sorry!!!

Chorus
Intro
At the very end, instead of the intro, play this:
D|---------------------------------------------------------------------------|
A|---------------------------------------------------------------------------|
F|---------------------------------------------------------------------------|
C|0---7p5\2p0--2h3-5-2p0--0---7p5\2p0-2h3--5p3--2p0--------------------------|
G|0-----------------------------0-----2h3--5p3--2p0--------------------------|
C|0-----------------------------0--------------------------------------------|
End!!!
            
Submit corrections

comments powered by Disqus
↑ Back to top | 12 Stones Tabs for Games You Play. Lyrics for acoustic guitar and electric guitar. Tablatures and chords are parodies/interpretations of the original songs. You may use it for private study, scholarship, research or language learning purposes only