>
 >
Far Away

Far Away Guitar Tabs

12 Stones - Far Away chords, tabs, tablatures, lyrics

Guitar lessons | Add/correct | Request | Top 50 tabs Artists:  A B C D E F G H I J K L M N O P Q R S T U V W X Y Z 0-9

Far Away Guitar Tabs – 12 Stones

CD, Sheet music, Poster

Do you like Far Away? Share with your friends now
TabsTabs v2Tabs v3Tabs v4
Gtr I (C G C F A D) - 'Guitar 1'
Gtr II (C G C F A D) - 'Guitar 2'
Gtr III (E A D G B E) - 'Chorus High Notes'


 Intro
  Q=100
  G5A5    G5A5G5  F5        D5    G5A5    G5A5G5  F5        G5
 6/8
  Gtrs I, II
  S E E S E E E   S E E S E E E   S E E S E E E   S E E S E E E
|---------------|---------------|---------------|---------------|
|---------------|---------------|---------------|---------------|
|---------------|---------------|---------------|---------------|
|-7-9-9-9-7-9-7-|-5-5-5-5-5-2-2-|-7-9-9-9-7-9-7-|-5-5-5-5-5-7-7-|
|-7-9-9-9-7-9-7-|-5-5-5-5-5-2-2-|-7-9-9-9-7-9-7-|-5-5-5-5-5-7-7-|
|-7h9-9-9-7-9-7-|-5-5-5-5-5-2-2-|-7h9-9-9-7-9-7-|-5-5-5-5-5-7-7-|


  G5A5    G5A5G5  D5              G5A5    G5A5G5  F5        E5
  Gtr I
  S E E S E E E   S E E S E E E   S E E S E E E   S E E S E E E
|---------------|---------------|---------------|----------------|
|---------------|---------------|---------------|----------------|
|---------------|---------------|---------------|----------------|
|-7-9-9-9-7-9-7-|-2-2-2-2-2-5-5-|-7-9-9-9-7-9-7-|-5-5-5-5-5-4-4--|
|-7-9-9-9-7-9-7-|-2-2-2-2-2-5-5-|-7-9-9-9-7-9-7-|-5-5-5-5-5-4-4--|
|-7h9-9-9-7-9-7-|-2-2-2-2-2-5-5-|-7h9-9-9-7-9-7-|-5-5-5-5-5-4-4--|
|
| Gtr II
| S E E S E E E   S E E S E E E   S E E S E E E   S E E S E E E
|---------------|---------------|---------------|----------------|
|---------------|---------------|---------------|----------------|
|---------------|-9-9-9-9-9-7-7-|---------------|----------------|
|-7-9-9-9-7-9-7-|-9-9-9-9-9-7-7-|-7-9-9-9-7-9-7-|-5-5-5-5-5-4-4--|
|-7-9-9-9-7-9-7-|-7-7-7-7-7-5-5-|-7-9-9-9-7-9-7-|-5-5-5-5-5-4-4--|
|-7h9-9-9-7-9-7-|---------------|-7h9-9-9-7-9-7-|-5-5-5-5-5-4-4--|


   Verse
    G5A5                     G5A5
    S E E. Q  E   W       3x S E E. Q  E   W
||--------------|---------||-------------|-------------------------|
||o-------------|--------o||-------------|-------------------------|
||--------------|---------||-------------|-------------------------|
||--7-9-9-------|---------||-7-9-9-------|-------------------------|
||o-7-9-9-------|--------o||-7-9-9-------|-------------------------|
||--7h9-9-------|---------||-7h9-9-------|-------------------------|
|
|   Gtr II
|                                               |--3--|  |--3--|
|   W             W       3x W             Q  E S. S. S. S. S. S.
||--------------|---------||-------------|-------------------------|
||o-------------|--------o||-------------|-------------------------|
||--------------|---------||-------------|------9--9--9--9--9--9---|
||--------------|---------||-------------|-------------------------|
||o-------------|--------o||-------------|-------------------------|
||--------------|---------||-------------|-------------------------|


  G5A5
  S E E.   Q     E     W
|--------------------|-----------------|
|--------------------|-----------------|
|--------------------|-----------------|
|-7-9-9--------------|-----------------|
|-7-9-9--------------|-----------------|
|-7h9-9--------------|-----------------|
|
| Q      E S E E   S   S E E S S E E S
|--------------------|-----------------|
|--------------------|-----------------|
|----------7-7-7---7-|-6-6-6-6-6-2-2-2-|
|--------------------|-----------------|
|--------------------|-----------------|
|--------------------|-----------------|


  G5A5
  S E E.   Q     E     W
|--------------------|-------------------|
|--------------------|-------------------|
|--------------------|-------------------|
|-7-9-9--------------|-------------------|
|-7-9-9--------------|-------------------|
|-7h9-9--------------|-------------------|
|
| Q      E S E E   S   S E E S E  S  S E
|--------------------|-------------------|
|--------------------|---------5-(5)-2-5-|
|----------7-7-7---7-|-6-6-6-6-----------|
|--------------------|-------------------|
|--------------------|-------------------|
|--------------------|-------------------|


  G5A5
  S E E.   Q     E     W
|--------------------|-----------------|
|--------------------|-----------------|
|--------------------|-----------------|
|-7-9-9--------------|-----------------|
|-7-9-9--------------|-----------------|
|-7h9-9--------------|-----------------|
|
| Q      E S E E   S   S E E S S E E S
|--------------------|-----------------|
|--------------------|-----------------|
|----------7-7-7---7-|-6-6-6-6-6-2-2-2-|
|--------------------|-----------------|
|--------------------|-----------------|
|--------------------|-----------------|


  G5A5        C5            G5        F5  E5
  S E E   S S  E  E  S    S E E S E   E   E
|----------------------|----------------------|
|----------------------|----------------------|
|----------------------|----------------------|
|-7-9-9---9-9-12-12-12-|-12-7-7-7-7---5---4---|
|-7-9-9---9-9-12-12-12-|-12-7-7-7-7---5---4---|
|-7h9-9---9-9h12-12-12-|-12p7-7-7-7---5---4---|
|
| Q     E   S  E  E  S    S E E S S S S S S S
|----------------------|----------------------|
|----------------------|----------5-5-5-5-5-5-|
|-----------7--7--7--7-|--6-6-6-6-------------|
|----------------------|----------------------|
|----------------------|----------------------|
|----------------------|----------------------|


 Chorus
  $
  G5A5    G5A5G5  F5        D5    G5A5    G5A5G5  F5        G5
  Gtrs I, II
  S E E S E E E   S E E S E E E   S E E S E E E   S E E S E E E
|---------------|---------------|---------------|----------------|
|---------------|---------------|---------------|----------------|
|---------------|---------------|---------------|----------------|
|-7-9-9-9-7-9-7-|-5-5-5-5-5-2-2-|-7-9-9-9-7-9-7-|-5-5-5-5-5-7-7--|
|-7-9-9-9-7-9-7-|-5-5-5-5-5-2-2-|-7-9-9-9-7-9-7-|-5-5-5-5-5-7-7--|
|-7h9-9-9-7-9-7-|-5-5-5-5-5-2-2-|-7h9-9-9-7-9-7-|-5-5-5-5-5-7-7--|
|
| Gtr III
| S E E S E E E   S E E S E E E   S E E S E E E   S E E S E E E
|---------------|---------------|---------------|----------------|
|---------------|-8-8-8-8-8-8-8-|---------------|-8-8-8-8-8-8-8--|
|-9-9-9-9-9-9-9-|---------------|-9-9-9-9-9-9-9-|----------------|
|---------------|---------------|---------------|----------------|
|---------------|---------------|---------------|----------------|
|---------------|---------------|---------------|----------------|


                                                           To Coda
  G5A5    G5A5G5  D5        F5    G5A5    G5A5G5  F5            E5
  Gtrs I, II
  S E E S E E E   S E E S E E E   S E E S E E E    S  E  E  S E E E
|---------------|---------------|---------------|--------------------|
|---------------|---------------|---------------|--------------------|
|---------------|---------------|---------------|--------------------|
|-7-9-9-9-7-9-7-|-2-2-2-2-2-5-5-|-7-9-9-9-7-9-7-|--5--5--5--5-5-4-4--|
|-7-9-9-9-7-9-7-|-2-2-2-2-2-5-5-|-7-9-9-9-7-9-7-|--5--5--5--5-5-4-4--|
|-7h9-9-9-7-9-7-|-2-2-2-2-2-5-5-|-7h9-9-9-7-9-7-|--5--5--5--5-5-4-4--|
|
| S E E S E E E   S E E S E E E   S E E S E E E    S  E  E  S E E E
|---------------|---------------|---------------|--------------------|
|---------------|-8-8-8-8-8-8-8-|---------------|--------------------|
|-9-9-9-9-9-9-9-|---------------|-9-9-9-9-9-9-9-|-10-10-10-10-9-9-9--|
|---------------|---------------|---------------|--------------------|
|---------------|---------------|---------------|--------------------|
|---------------|---------------|---------------|--------------------|


 Post Chorus
  G5A5                                   G5A5
  S E E.   Q     E     W                 S E E.   Q     E
|--------------------|-----------------|--------------------|
|--------------------|-----------------|--------------------|
|--------------------|-----------------|--------------------|
|-7-9-9--------------|-----------------|-7-9-9--------------|
|-7-9-9--------------|-----------------|-7-9-9--------------|
|-7h9-9--------------|-----------------|-7h9-9--------------|
|
| Gtr II
| Q      E S E E   S   S E E S S E E S   Q      E S E E   S
|--------------------|-----------------|--------------------|
|--------------------|-----------------|--------------------|
|----------7-7-7---7-|-6-6-6-6-6-2-2-2-|----------7-7-7---7-|
|--------------------|-----------------|--------------------|
|--------------------|-----------------|--------------------|
|--------------------|-----------------|--------------------|


  W
|----------------------------------------|
|----------------------------------------|
|----------------------------------------|
|----------------------------------------|
|----------------------------------------|
|----------------------------------------|
|
| S E E S S     S    S    S    S    S
|----------------------------------------|
|---------6b6.5-6b7==6pb7-6pb7-6pb7-6pb7-|
|-6-6-6-6--------------------------------|
|----------------------------------------|
|----------------------------------------|
|----------------------------------------|


   Verse 2
    G5A5      C5    F5G5      D5    G5A5      C5    F5G5      D5
    Gtrs I, II
    S E E S E E E   S E E S E E E   S E E S E E E   S E E S E E E
||----------------|---------------|---------------|----------------||
||o---------------|---------------|---------------|---------------o||
||----------------|---------------|---------------|----------------||
||--7-9-9-9-9-0-0-|-5-7-7-7-7-2-2-|-7-9-9-9-9-0-0-|-5-7-7-7-7-2-2--||
||o-7-9-9-9-9-0-0-|-5-7-7-7-7-2-2-|-7-9-9-9-9-0-0-|-5-7-7-7-7-2-2-o||
||--7h9-9-9-9-0-0-|-5h7-7-7-7-2-2-|-7h9-9-9-9-0-0-|-5h7-7-7-7-2-2--||


  G5G#A5      G5C5    F5F#G5      F5D5
  Gtrs I, II
  S S S E S S S E E   S S S E S S S E E
|-------------------|-------------------|
|-------------------|-------------------|
|-------------------|-------------------|
|-7-8-9-9-9-9-7-0-0-|-5-6-7-7-7-7-5-2-2-|
|-7-8-9-9-9-9-7-0-0-|-5-6-7-7-7-7-5-2-2-|
|-7h8h9-9-9-9-7-0-0-|-5h6h7-7-7-7-5-2-2-|


  G5G#A5      G5C5    F5F#G5      F5D5
  S S S E S S S E E   S S S E S S S E S S
|-------------------|----------------------|
|-------------------|----------------------|
|-------------------|----------------------|
|-7-8-9-9-9-9-7-0-0-|-5-6-7-7-7-7-5-2-x-x--|
|-7-8-9-9-9-9-7-0-0-|-5-6-7-7-7-7-5-2-x-x--|
|-7h8h9-9-9-9-7-0-0-|-5h6h7-7-7-7-5-2-x-x--|


  G5G#A5      G5C5    F5F#G5      F5D5D5
  Gtrs I, II
  S S S E S S S E E   S S S E S S S E E
|-------------------|-------------------|
|-------------------|-------------------|
|-------------------|-------------------|
|-7-8-9-9-9-9-7-0-0-|-5-6-7-7-7-7-5-2-2-|
|-7-8-9-9-9-9-7-0-0-|-5-6-7-7-7-7-5-2-2-|
|-7h8h9-9-9-9-7-0-0-|-5h6h7-7-7-7-5-2-2-|


                              D.S. al Coda
  G5G#A5      G5C5    F5F#G5      F5D5/G
  S S S E S S S E E   S S S E S S S S S S S
|-------------------|-----------------------|
|-------------------|-----------------------|
|-------------------|-----------------------|
|-7-8-9-9-9-9-7-0-0-|-5-6-7-7-7-7-5-9-9-9-9-|
|-7-8-9-9-9-9-7-0-0-|-5-6-7-7-7-7-5-7-7-7-7-|
|-7h8h9-9-9-9-7-0-0-|-5h6h7-7-7-7-5-7-7-7-7-|


 Solo
  &
  Gtr I
  S S S S S S S S S S S S   S S S S S S S S S S S S
|-------------------------|-------------------------|
|-------------------------|-------------------------|
|-------------------------|-------------------------|
|-------------------------|-------------------------|
|-0-2-2-2-2-2-3-2-0-2-0-2-|-0-2-2-2-2-2-3-2-0-2-0-2-|
|-------------------------|-------------------------|


  S S S S S S S S S S S S   S S S S S S S S S S S S
|-------------------------|----------------------------|
|-------------------------|----------------------------|
|-------------------------|----------------------------|
|-------------------------|----------------------------|
|-0-2-2-2-2-2-3-2-0-2-0-2-|-0-2-2-2-2-2-3-2-0-2-0-2----|
|-------------------------|----------------------------|


  G5 A5           Bb5A5G5 A5 G5 A5   G5 A5           Bb5A5G5 A5 G5 A5
  Gtr I
   S S  S  S S  S  S S  S  S  S  S    S S  S  S S  S  S S  S  S  S  S
|----------------------------------|----------------------------------|
|----------------------------------|----------------------------------|
|----------------------------------|----------------------------------|
|--7-9--9--9-9--9-10-9--7--9--7--9-|--7-9--9--9-9--9-10-9--7--9--7--9-|
|--7-9--9--9-9--9-10-9--7--9--7--9-|--7-9--9--9-9--9-10-9--7--9--7--9-|
|--7h9--9--9-9--9-10p9--7h=9--7h=9-|--7h9--9--9-9--9-10p9--7h=9--7h=9-|
|
| Gtr II
|  E    S  E    S  E    S  S  S  S    E    S  E    S  E    S  S  S  S
|----------------------------------|----------------------------------|
|-12---12-12---12-12---12-12-12-12-|----------------------------------|
|----------------------------------|----------------------------------|
|----------------------------------|-12---12-12---12-12---12-12-12-12-|
|----------------------------------|----------------------------------|
|----------------------------------|----------------------------------|


  G5 A5           Bb5A5G5 A5 G5 A5   G5A5        Bb5A5G5A5G5A5
   S S  S  S S  S  S S  S  S  S  S   S S S S S S  S S S S S S
|----------------------------------|--------------------------|
|----------------------------------|--------------------------|
|----------------------------------|--------------------------|
|--7-9--9--9-9--9-10-9--7--9--7--9-|-7-9-9-9-9-9-10-9-7-9-7-9-|
|--7-9--9--9-9--9-10-9--7--9--7--9-|-7-9-9-9-9-9-10-9-7-9-7-9-|
|--7h9--9--9-9--9-10p9--7h=9--7h=9-|-7h9-9-9-9-9-10p9-7h9-7h9-|
|
|  E    S  E    S  E    S  S  S  S   E   S E   S  E   E   E
|----------------------------------|--------------------------|
|----------------------------------|--------------------------|
|-11---11-11---11-11---11-11-11-11-|--------------------------|
|----------------------------------|-9---9-9---9--9---9---9---|
|----------------------------------|--------------------------|
|----------------------------------|--------------------------|


 Bridge
  F5              D5              A5              E5
  Gtrs I, II
  E. E S E. E S   E. E S E. E S   E. E S E. E S   E. E S E E E
|---------------|---------------|---------------|---------------|
|---------------|---------------|---------------|---------------|
|---------------|---------------|-4--4-4-4--4-4-|---------------|
|-5--5-5-5--5-5-|-2--2-2-2--2-2-|-4--4-4-4--4-4-|-4--4-4-4-4-4--|
|-5--5-5-5--5-5-|-2--2-2-2--2-2-|-2--2-2-2--2-2-|-4--4-4-4-4-4--|
|-5--5-5-5--5-5-|-2--2-2-2--2-2-|---------------|-4--4-4-4-4-4--|


  F5              G5              D5                       E5
  Gtrs I, II
  E. E S E. E S   E. E S E. E S   E. E S E. E S   E. E S E E E
|---------------|---------------|---------------|---------------|
|---------------|---------------|---------------|---------------|
|---------------|---------------|-4--4-4-4--4-4-|-4--4-4-4------|
|-5--5-5-5--5-5-|-7--7-7-7--7-7-|-2--2-2-2--2-2-|-2--2-2-2-4-4--|
|-5--5-5-5--5-5-|-7--7-7-7--7-7-|-2--2-2-2--2-2-|-2--2-2-2-4-4--|
|-5--5-5-5--5-5-|-7--7-7-7--7-7-|-2--2-2-2--2-2-|-2--2-2-2-4-4--|


  F5              D5              A5              E5
  Gtrs I, II
  E. E S E. E S   E. E S E. E S   E. E S E. E S   E. E S E E E
|---------------|---------------|---------------|---------------|
|---------------|---------------|---------------|---------------|
|---------------|---------------|-4--4-4-4--4-4-|---------------|
|-5--5-5-5--5-5-|-2--2-2-2--2-2-|-4--4-4-4--4-4-|-4--4-4-4-4-4--|
|-5--5-5-5--5-5-|-2--2-2-2--2-2-|-2--2-2-2--2-2-|-4--4-4-4-4-4--|
|-5--5-5-5--5-5-|-2--2-2-2--2-2-|---------------|-4--4-4-4-4-4--|


  F5              G5
  E. E S E. E S   E E E S S S S S S
|---------------|-------------------|
|---------------|-------------------|
|---------------|-------------------|
|-5--5-5-5--5-5-|-7-7-7-9-9-9-9-9-9-|
|-5--5-5-5--5-5-|-7-7-7-------------|
|-5--5-5-5--5-5-|-7-7-7-------------|


   Chorus x 2
    G5A5    G5A5G5  F5        D5    G5A5    G5A5G5  F5        G5
    Gtrs I, II
    S E E S E E E   S E E S E E E   S E E S E E E   S E E S E E E
||----------------|---------------|---------------|---------------|
||o---------------|---------------|---------------|---------------|
||----------------|---------------|---------------|---------------|
||--7-9-9-9-7-9-7-|-5-5-5-5-5-2-2-|-7-9-9-9-7-9-7-|-5-5-5-5-5-7-7-|
||o-7-9-9-9-7-9-7-|-5-5-5-5-5-2-2-|-7-9-9-9-7-9-7-|-5-5-5-5-5-7-7-|
||--7h9-9-9-7-9-7-|-5-5-5-5-5-2-2-|-7h9-9-9-7-9-7-|-5-5-5-5-5-7-7-|
|
|   Gtr III
|   S E E S E E E   S E E S E E E   S E E S E E E   S E E S E E E
||----------------|---------------|---------------|---------------|
||o---------------|-8-8-8-8-8-8-8-|---------------|-8-8-8-8-8-8-8-|
||--9-9-9-9-9-9-9-|---------------|-9-9-9-9-9-9-9-|---------------|
||----------------|---------------|---------------|---------------|
||o---------------|---------------|---------------|---------------|
||----------------|---------------|---------------|---------------|


  G5A5    G5A5G5  D5        F5    G5A5    G5A5G5  F5            E5
  S E E S E E E   S E E S E E E   S E E S E E E    S  E  E  S E E E
|---------------|---------------|---------------|---------------------||
|---------------|---------------|---------------|--------------------o||
|---------------|---------------|---------------|---------------------||
|-7-9-9-9-7-9-7-|-2-2-2-2-2-5-5-|-7-9-9-9-7-9-7-|--5--5--5--5-5-4-4---||
|-7-9-9-9-7-9-7-|-2-2-2-2-2-5-5-|-7-9-9-9-7-9-7-|--5--5--5--5-5-4-4--o||
|-7h9-9-9-7-9-7-|-2-2-2-2-2-5-5-|-7h9-9-9-7-9-7-|--5--5--5--5-5-4-4---||
|
| S E E S E E E   S E E S E E E   S E E S E E E    S  E  E  S E E E
|---------------|---------------|---------------|---------------------||
|---------------|-8-8-8-8-8-8-8-|---------------|--------------------o||
|-9-9-9-9-9-9-9-|---------------|-9-9-9-9-9-9-9-|-10-10-10-10-9-9-9---||
|---------------|---------------|---------------|---------------------||
|---------------|---------------|---------------|--------------------o||
|---------------|---------------|---------------|---------------------||


   Ending
    G5A5        G5A5          G5A5        Bb5A5G5A5G5A5
    Gtr I
    S S S S S S S S S S S S   S S S S S S  S S S S S S
||--------------------------|----------------------------||
||o-------------------------|---------------------------o||
||--------------------------|----------------------------||
||--7-9-9-9-9-9-7-9-9-9-9-9-|-7-9-9-9-9-9-10-9-7-9-7-9---||
||o-7-9-9-9-9-9-7-9-9-9-9-9-|-7-9-9-9-9-9-10-9-7-9-7-9--o||
||--7h9-9-9-9-9-7h9-9-9-9-9-|-7h9-9-9-9-9-10p9-7h9-7h9---||


  G5 A5           Bb5A5G5 A5 G5 A5   G5 A5           Bb5A5G5 A5 G5 A5
   S S  S  S S  S  S S  S  S  S  S    S S  S  S S  S  S S  S  S  S  S
|----------------------------------|----------------------------------|
|----------------------------------|----------------------------------|
|----------------------------------|----------------------------------|
|--7-9--9--9-9--9-10-9--7--9--7--9-|--7-9--9--9-9--9-10-9--7--9--7--9-|
|--7-9--9--9-9--9-10-9--7--9--7--9-|--7-9--9--9-9--9-10-9--7--9--7--9-|
|--7h9--9--9-9--9-10p9--7h=9--7h=9-|--7h9--9--9-9--9-10p9--7h=9--7h=9-|
|
| Gtr II
|  E    S  E    S  E    S  S  S  S    E    S  E    S  E    S  S  S  S
|----------------------------------|----------------------------------|
|-12---12-12---12-12---12-12-12-12-|----------------------------------|
|----------------------------------|----------------------------------|
|----------------------------------|-12---12-12---12-12---12-12-12-12-|
|----------------------------------|----------------------------------|
|----------------------------------|----------------------------------|


  G5 A5           Bb5A5G5 A5 G5 A5   G5A5        Bb5A5G5A5G5A5
   S S  S  S S  S  S S  S  S  S  S   S S S S S S  S S S S S S   Q   H
|----------------------------------|--------------------------|----------*|
|----------------------------------|--------------------------|----------*|
|----------------------------------|--------------------------|----------*|
|--7-9--9--9-9--9-10-9--7--9--7--9-|-7-9-9-9-9-9-10-9-7-9-7-9-|----------*|
|--7-9--9--9-9--9-10-9--7--9--7--9-|-7-9-9-9-9-9-10-9-7-9-7-9-|-2\-------*|
|--7h9--9--9-9--9-10p9--7h=9--7h=9-|-7h9-9-9-9-9-10p9-7h9-7h9-|----------*|
|
|  E    S  E    S  E    S  S  S  S   E   S E   S  E   E   E     W
|----------------------------------|--------------------------|----------*|
|----------------------------------|--------------------------|----------*|
|-11---11-11---11-11---11-11-11-11-|--------------------------|----------*|
|----------------------------------|-9---9-9---9--9---9---9---|----------*|
|----------------------------------|--------------------------|----------*|
|----------------------------------|--------------------------|----------*|




--------------------------------------------------------------------------------


Duration Legend
---------------
W - whole; H - half; Q - quarter; E - 8th; S - 16th; T - 32nd; X - 64th; a - acciaccatura
+ - note tied to previous; . - note dotted; .. - note double dotted
Uncapitalized letters represent notes that are staccato (1/2 duration)
Irregular groupings are notated above the duration line
Duration letters will always appear directly above the note/fret number it represents the
duration for.  Duration letters with no fret number below them represent rests.  Multi-
bar rests are notated in the form Wxn, where n is the number of bars to rest for.  Low
melody durations appear below the staff

Tablature Legend
----------------
 h   - hammer-on
 p   - pull-off
 b   - bend
 pb  - pre-bend
 r   - bend release (if no number after the r, then release immediately)
 /\  - slide into or out of (from/to "nowhere")
 s   - legato slide
 S   - shift slide
 - natural harmonic
[n]  - artificial harmonic
n(n) - tapped harmonic
 ~   - vibrato
 tr  - trill
 T   - tap
 TP  - trem. picking
 PM  - palm muting
\n/  - tremolo bar dip; n = amount to dip
 \n  - tremolo bar down
 n/  - tremolo bar up
/n\  - tremolo bar inverted dip
 =   - hold bend; also acts as connecting device for hammers/pulls
 <> - volume swell (louder/softer)
 x   - on rhythm slash represents muted slash
 o   - on rhythm slash represents single note slash

Misc Legend
-----------
 |  - bar
||  - double bar
||o - repeat start
o|| - repeat end
*|  - double bar (ending)
 :  - bar (freetime)
 $  - Segno
 &  - Coda
Tempo markers -  = BPM(8/16=s8/s16), where s8 = swing 8ths, s16 = swing 16ths





Comments


Popular 12 Stones tabs & chords
The Way I Feel Bass Tabs
Arms Of A Stranger 1 Chords
Lie To Me Chords
Lie To Me 3 Chords
3 Leaf Loser Tabs
Adrenaline 2 Tabs
Broken 6 Tabs
Let Go 3 Tabs
The Way I Feel 6 Tabs
Tomorrow Comes Today 1 Tabs


Song lyrics



↑ Back to top | Tablatures and chords are parodies/interpretations of the original songs. You may use it for private study, scholarship, research or language learning purposes only
© 2014 AZChords.com Contact us | Privacy policy | DMCA | Add/correct tabs | Request tabs | Top 50 tabs