» » »

12 Stones, Broken Right Tabs (ver.1)

Artists:  A B C D E F G H I J K L M N O P Q R S T U V W X Y Z # 

Broken Right Tabs (ver.1)

12 Stones Tabs
 Rating:
4/5 (4 votes)
Broken Right lessons Tabs too difficult? Try these video lessons and learn fast
1
                (Sion)
12 Stones – Broken

drop-d tuning
this version is 100% correct!…(screw the timing)
so here we go:

intro/main riff/outro(heavy dist): 
|---------------------------------------------------------------------------------------------------------------------|
|---------------------------------------------------------------------------------------------------------------------|
|---------------------------------------------------------------------------------------------------------------------|
|-x-x-x-x----0-0-0-0---x-x-x-0-0-0---/10-10-10-10--\8-8-8-8--x-x-x-x-8-8-8---/9-x-x--0-0-0-0-----|
|-x-x-x-x----0-0-0-0---x-x-x-0-0-0---/10-10-10-10--\8-8-8-8--x-x-x-x-8-8-8---/9-x-x--0-0-0-0-----|
|-x-x-x-x----0-0-0-0---x-x-x-0-0-0---/10-10-10-10--\8-8-8-8--x-x-x-x-8-8-8---/9-x-x--0-0-0-0-----|
“BRING IT!”

another guitar plays this the second time:
|-----------------------------------------------------------------------------------------------------|
|-----------------------------------------------------------------------------------------------------|
|-7--7---7--7--7----7--7--/10-10-10-\3--3---3--3--3---3--3----/5--5--------(x 2)-----------|
|-x--x---x--x--x----x--x---x--x--x---x--x---x--x--x---x--x---x---x-------------------------|
|-5--5---5--5--5----5--5--/8--8--8---\1--1---1--1--1---1--1---/3--3-------------------------|
|-----------------------------------------------------------------------------------------------------|


verse(clean):
|-----------------------------------------------------------------------------------------------------|
|-----------------------------------------------------------------------------------------------------|
|---------2-------------------------------------------------------------------------------------------|
|-0--3-------3-----0h2h3----0h2h3-------0h2h3----------0---3---0h3---------(x 5)----------|
|----------------------------------1--------------1h3------------------------------------------|
|-----------------------------------------------------------------------------------------------------|


chorus(heavy dist):
|-----------------------------------------------------------------------------------------------------|
|-------------------------------------------------------------------------------------(x 4)----------|
|-----------------------------------------------------------------------------------------------------|
|-0-0-0-0---x-x-x-0-0-0---/10-10-10-10--\8-8-8-8--x-x-x-x-8-8-8---/9-x-x--0-0-0-0---|
|-0-0-0-0---x-x-x-0-0-0---/10-10-10-10--\8-8-8-8--x-x-x-x-8-8-8---/9-x-x--0-0-0-0---|
|-0-0-0-0---x-x-x-0-0-0---/10-10-10-10--\8-8-8-8--x-x-x-x-8-8-8---/9-x-x--0-0-0-0---|


interlude(heavy dist):
|---------------------------------------------------------------------------------------------------------------------|
|---------------------------------------------------------------------------------------------------------------------|
|--------10-10--10-10--/12--12--12-------------x-10--\9---9----9--9---------(x 2)----------------------------|
|-0--0---x--x----x--x---x---x----x-----3--3----x--x--\x--x-----x--x-----------------------------------------|
|-0--0---8--8----8--8---/10--10--10----3--3----x--8--\7--7-----7--7-----------------------------------------|
|-0--0---------------------------------3--3-----------------------------------------------------------------|





Solo(heavy dist):
P.M. all notes
|-------------------------------------------------------------------------------------------------------|
|--------------------------------------------------------------------------------------------(x 2)------|
|-------------------------------------------------------------------------------------------------------|
|---------------------------------------------------------------------------10-10--8-8--7-7--8-8--------|
|------8-8--7-7--8-8--10-10--8-8--7-7--5-5-----8-8--7-7--8-8--------------------------------------------|
|-0-0----------------------------------------------8-8--------------------------------------------------|


without P.M.
|----------------------------------------------------------------------------------------------------------------|
|----------------------------------------------------------------------------------------------------------------|
|----------------------------------------------------------------------------------------------------------------|
|---------------------------------------------------------------------------10-10--8-8--7-7--8-8-----------------|
|------------8-8--7-7--8-8--10-10--8-8--7-7--5-5--------8-8--7-7--8-8--------------------------------------------|
|-0-0----------------------------------------------8-8-----------------------------------------------------------|


|---------------------------------------------------------------------------------------------------------------------|
|---------------------------------------------------------------------------------------------------------------------|
|---------------------------------------------------------------------------------------------------------------------|
|---------------------------------------------------------------------------10--10^--10^--10^\-------------------|
|------8-8--7-7--8-8--10-10--8-8--7-7--5-5--------8-8--7-7--8-8--------------------------------------------|
|-0-0----------------------------------------------8-8--------------------------------------------------------------|


that’s it, you shouldn’t have any problems. it’s the 100% correct version, so plz rate! enjoy!
            
Submit corrections

comments powered by Disqus
↑ Back to top | 12 Stones Tabs for Broken Right. Lyrics for acoustic guitar and electric guitar. 1 Tablatures and chords are parodies/interpretations of the original songs. You may use it for private study, scholarship, research or language learning purposes only