>
 >
Broken 9

Broken 9 Guitar Tabs

12 Stones - Broken 9 chords, tabs, tablatures, lyrics

Guitar lessons | Add/correct | Request | Top 50 tabs Artists:  A B C D E F G H I J K L M N O P Q R S T U V W X Y Z 0-9

Broken 9 Guitar Tabs – 12 Stones

CD, Sheet music, Poster

Do you like Broken 9? Share with your friends now
Bass TabsBass Tabs v2Bass Tabs v3Bass Tabs v4TabsTabs v2Tabs v10Tabs v3Tabs v4Tabs v5Tabs v6Tabs v7Tabs v8Tabs v9
this is the solo in the song, broken by,12 stones


e-------------------------------------------------|
B-------------------------------------------------|
G-------------------------------------------------|
D-------------------------------------------------|
A-55-88-77-88-10-10-88-77-55----88-77-88----------|
E----------------------------66-------------------|

e-------------------------------------------------|
B-------------------------------------------------|
G-------------------------------------------------|
D--10-10-88-77-88---------------------------------|
A-----------------55-88-77-88-77-88-10-10-88-77---|
E-------------------------------------------------|

e-------------------------------------------------|
B-------------------------------------------------|
G-------------------------------------------------|
D-----------------10-10-10-10-10-10-10-10---------|
A-55----88-77-88----------------------------------|
E----66-------------------------------------------|

on the eight "10's" at the end... slowly bend the string.


i've played this in my room millions of times and im pretty sure it's right.





Comments


Popular 12 Stones tabs & chords
Adrenaline 1 Bass Tabs
Broken 3 Bass Tabs
In My Head Bass Tabs
Lie To Me 2 Bass Tabs
Arms Of A Stranger 1 Chords
Bulletproof Tabs
Crash Tabs
Eric's Song 2 Tabs
Infected Tabs
It Was You Ukulele


Song lyrics



↑ Back to top | Tablatures and chords are parodies/interpretations of the original songs. You may use it for private study, scholarship, research or language learning purposes only
© 2014 AZChords.com Contact us | Privacy policy | DMCA | Add/correct tabs | Request tabs | Top 50 tabs