» » »

Broken Tabs (ver.5)

Artists:  A B C D E F G H I J K L M N O P Q R S T U V W X Y Z # 

Broken Tabs (ver.5)

12 Stones
Rating:
3/5 (2 votes)

Hard to play? Try these video lessons and learn fast.
                Dropped D Tuning
12 Stones - Broken

x = dead note
s = slide
L = Link...hold

Guitar 1 - Dropped D (electric)
E||------------------------------|--------------------------------|
B||------------------------------|--------------------------------|
G||------------------------------|--------------------------------|
D||--x-x-x-x-0--0--x-x-x-0-0--0--|--10-10--L-8--8--x-x-x-8-8--8---|
A||--x-x-x-x-0--0--x-x-x-0-0--0--|--10-10--L-8--8--x-x-x-8-8--8---|
D||--x-x-x-x-0--0--x-x-x-0-0--0--|--10-10--L-8--8--x-x-x-8-8--8---|

----------------------------|--------------------------------|--------------|
----------------------------|--------------------------------|--------------|
----------------------------|--------------------------------|--------------|
10-10--L-0--0--x-x-x-0-0--0-|--10-10--L-8--8--x-x-x-8-8--8S--|--10-10-10-10-|
10-10--L-0--0--x-x-x-0-0--0-|--10-10--L-8--8--x-x-x-8-8--8S--|--10-10-10-10-|
10-10--L-0--0--x-x-x-0-0--0-|--10-10--L-8--8--x-x-x-8-8--8S--|--10-10-10-10-|

Guitar 2 - Dropped D (electric)

|-----------------------------|----------------------------------|----------|
|-----------------------------|----------------------------------|----------|
|---------7--7--7-7--7--7-7-7-|--10--10-10-3--3--3-3-3--3--3-3-3-|--5-5-5-5-|
|---------x--x--x-x--x--x-x-x-|---x---x--x-x--x--x-x-x--x--x-x-x-|--x-x-x-x-|
|---------5--5--5-5--5--5-5-5-|---8---8--8-1--1--1-1-1--1--1-1-1-|--3-3-3-3-|
|-----------------------------|----------------------------------|----------|
             

Guitar 3 - Standard Tuning (clean)

-------------------|-------|-------------------------------|
-------------------|-------|-------------------------------|
-------------------|-------|--------2----------------------|
-------------------|-------|-----3-----3----0h-3-------3---|
-------------------|-------|----------------------0h-3-----|
-------------------|-------|--0-----------0----------------|

 
-------------------------------|-------------------------------|
-------------------------------|-------------------------------|
-------------------------------|--------2----------------------|
-----0--3-----------3--(0)-(3)-|-----3-----3----0h-3-------3---|
--1----------1S--3-------------|----------------------0h-3-----|
-------------------------------|--0-----------0----------------|

(or if you are playing this solo [by yourself] then heres how to play it in dropped d)

-------------------|-------|-------------------------------|
-------------------|-------|-------------------------------|
-------------------|-------|--------2----------------------|
-------------------|-------|-----3-----3----0h-3-------3---|
-------------------|-------|----------------------0h-3-----|
-------------------|-------|--2-----------2----------------|

 
-------------------------------|-------------------------------|
-------------------------------|-------------------------------|
-------------------------------|--------2----------------------|
-----0--3-----------3--(0)-(3)-|-----3-----3----0h-3-------3---|
--1----------1S--3-------------|----------------------0h-3-----|
-------------------------------|--2-----------2----------------|


Guitar 1 - Dropped D (electric)

--------------------------------------|-------------------------------|
--------------------------------------|-------------------------------|
--------10-10--10--10--10-12-12-12-12-|--------10-10--9--9--9-9-9-7-7-|
--0--0---x--x---x---x---x--x--x--x--x-|--3--3---x--x--x--x--x-x-x-x-x-|
--0--0---8--8---8---8---8-10-10-10-10-|--3--3---8--8--7--7--7-7-7-5-5-|
--0--0--------------------------------|--3--3-------------------------|


--------------------------------------|-------------------------------|
--------------------------------------|-------------------------------|
--------10-10--10--10--10-12-12-12-12-|--------10-10--9--9--9-9-9-7-7-|
--0--0---x--x---x---x---x--x--x--x--x-|--3--3---x--x--x--x--x-x-x-x-x-|
--0--0---8--8---8---8---8-10-10-10-10-|--3--3---8--8--7--7--7-7-7-5-5-|
--0--0--------------------------------|--3--3-------------------------|


--------------------------------------|-------------------------------|
--------------------------------------|-------------------------------|
--------10-10--10--10--10-12-12-12-12-|--------10-10--9--9--9-9-9-7-7-|
--0--0---x--x---x---x---x--x--x--x--x-|--3--3---x--x--x--x--x-x-x-x-x-|
--0--0---8--8---8---8---8-10-10-10-10-|--3--3---8--8--7--7--7-7-7-5-5-|
--0--0--------------------------------|--3--3-------------------------|


--------------------------------------|-------------------------------|
--------------------------------------|-------------------------------|
--------10-10--10--10--10-12-12-12-12-|--------10-10--9--9--9-9-9-7-7-|
--0--0---x--x---x---x---x--x--x--x--x-|--3--3---x--x--x--x--x-x-x-x-x-|
--0--0---8--8---8---8---8-10-10-10-10-|--3--3---8--8--7--7--7-7-7-5-5-|
--0--0--------------------------------|--3--3-------------------------|


--------------------------------------|-------------------------------|
--------------------------------------|-------------------------------|
--------10-10--10--10--10-12-12-12-12-|--------10-10--9--9--9-9-9-7-7-|
--0--0---x--x---x---x---x--x--x--x--x-|--3--3---x--x--x--x--x-x-x-x-x-|
--0--0---8--8---8---8---8-10-10-10-10-|--3--3---8--8--7--7--7-7-7-5-5-|
--0--0--------------------------------|--3--3-------------------------|


Thats pretty much it. Its easy. and AWESOME! enjoy.
its 99.9% correct! if not 100%! well, YEAH! 
            
Hard to play? Try these video lessons and learn fast. | Correct




comments powered by Disqus
↑ Back to top | Tablatures and chords are parodies/interpretations of the original songs. You may use it for private study, scholarship, research or language learning purposes only