>
 >
Bitter 3

Bitter 3 Guitar Tabs

12 Stones - Bitter 3 chords, tabs, tablatures, lyrics

Guitar lessons | Add/correct | Request | Top 50 tabs Artists:  A B C D E F G H I J K L M N O P Q R S T U V W X Y Z 0-9

Bitter 3 Guitar Tabs – 12 Stones

CD, Sheet music, Poster

Do you like Bitter 3? Share with your friends now
TabsTabs v2Tabs v3Tabs v4
Tuning:

 Intro
 d|-----------------------------------------|
 A|-----------------------------------------|
 F|-----------------------------------------|
 C|-4--2--6--4~----4--2--6--7~--------------|
 G|-4--2--6--4~----4--2--6--7~--------------|
 C|-4--2--6--4~----4--2--6--7~--------------|


 Pre-Verse
 -----------------------------------------------------|
 -----------------------------------------------------|
 ---------------------7~-----------------------11~----|
 -2-2--0-0--4-4--0-0--x----2-2--0-0--4-4--0-0--x------|
 -2-2--0-0--4-4--0-0--5~---2-2--0-0--4-4--0-0--9~-----|
 -2-2--0-0--4-4--0-0-------2-2--0-0--4-4--0-0---------|


 Verse
 -------------------------------------------|
 -------------------------------------------|
 -------------------------------------------|
 --4---2---6---4-4-4----4---2---6---7-7-7---|
 -------------------------------------------|
 -0-0-0-0-0-0-0-0-0-0--0-0-0-0-0-0-0-0-0-0--|


 Chorus
 -----------------------------------------------------|
 -----------------------------------------------------|
 -----------------------------------------------------|
 -x-x-x--4--4-4-4-7-7--7-7-7-2-2--2-2-2-2--0-0-0------|
 -x-x-x--4--4-4-4-7-7--7-7-7-2-2--2-2-2-2--0-0-0------|
 -x-x-x--4--4-4-4-7-7--7-7-7-2-2--2-2-2-2--0-0-0------|
 P.M.                                      . . .

 -----------------------------------------------------|
 -----------------------------------------------------|
 -------------------------------7-7-7-7--9-9-9-9------|
 -4--4-4-4-7-7--7-7-7-2-2--2-2--x-x-x-x--x-x-x-x------|
 -4--4-4-4-7-7--7-7-7-2-2--2-2--5-5-5-5--7-7-7-7------|
 -4--4-4-4-7-7--7-7-7-2-2--2-2------------------------|

 -----------------------------------------------------|
 -----------------------------------------------------|
 -----------------------------------------------------|
 -x-x-x--4--4-4-4-7-7--7-7-7-2-2--2-2-2-2--0-0-0------|
 -x-x-x--4--4-4-4-7-7--7-7-7-2-2--2-2-2-2--0-0-0------|
 -x-x-x--4--4-4-4-7-7--7-7-7-2-2--2-2-2-2--0-0-0------|
 P.M.                                      . . .

 -----------------------------------------------------|
 -----------------------------------------------------|
 -------------------------------7-7-7-7--9-9-9-9------|
 -4--4-4-4-7-7--7-7-7-2-2--2-2--x-x-x-x--x-x-x-x------|
 -4--4-4-4-7-7--7-7-7-2-2--2-2--5-5-5-5--7-7-7-7------|
 -4--4-4-4-7-7--7-7-7-2-2--2-2------------------------|


 Bridge
 -----------------------------------------------------|
 -3-3-3-3-3-------------------------------------------|
 -2-2-2-2-2---6-6-6-6-6-6---9-9-9-9-9-----------------|
 -0-0-0-0-0---4-4-4-4-4-4---7-7-7-7-7---9-9-9-9-9-----|
 -0-0-0-0-0---4-4-4-4-4-4---7-7-7-7-7---9-9-9-9-9-----|
 -0-0-0-0-0---4-4-4-4-4-4---7-7-7-7-7---9-9-9-9-9-----|

 -----------------------------------------------------------|
 -3-3-3-3-3-------------------------------------------------|
 -2-2-2-2-2---6-6-6-6-6-6---9-9-9-9-9-----------------------|
 -0-0-0-0-0---4-4-4-4-4-4---7-7-7-7-7---9-9-9-7-7-12-12-12--|
 -0-0-0-0-0---4-4-4-4-4-4---7-7-7-7-7---9-9-9-7-7-12-12-12--|
 -0-0-0-0-0---4-4-4-4-4-4---7-7-7-7-7---9-9-9-7-7-12-12-12--|


 Outro
 (whole thing 2x)
 (sounds fine but it doesn't match the CD)
 -----------------------------------------|
 -------------------9--9------------------|
 -9/11-11-11-11-9-11-11-11-9-7-9-9-7------|
 -----------------------------------------|
 -----------------------------------------|
 -----------------------------------------|

 -----------------------------------------|
 -----9---9---9--10-10---10--12-12--------|
 -9/11-11--11--11------11--11-----10-10---|
 -----------------------------------------|
 -----------------------------------------|
 -----------------------------------------|


 Song Order:

 Intro
 Pre-Verse
 Verse
 Chorus
 Pre-Verse
 Intro
 Verse
 Chorus
 Bridge
 Chorus
 Outro





Comments


Popular 12 Stones tabs & chords
Anthem For The Underdog Bass Tabs
Arms Of A Stranger Chords
It Was You Chords
3 Leaf Loser Tabs
Back Up Tabs
Crash (Intro) Tabs
Crash 2 Tabs
Enemy Tabs
Lie To Me 4 Tabs
Lifeless Tabs


Song lyrics



↑ Back to top | Tablatures and chords are parodies/interpretations of the original songs. You may use it for private study, scholarship, research or language learning purposes only
© 2014 AZChords.com Contact us | Privacy policy | DMCA | Add/correct tabs | Request tabs | Top 50 tabs