» » »

12 Stones, 3 Leaf Loser Tabs (ver.1)

Artists:  A B C D E F G H I J K L M N O P Q R S T U V W X Y Z # 

3 Leaf Loser Tabs (ver.1)

12 Stones Tabs
 Rating:
4/5 (4 votes)
3 Leaf Loser lessons Tabs too difficult? Try these video lessons and learn fast
1
                Guitar 1 (lead)
Intro pt 1(clean)
D|-----------------------------|
A|-----------------------------|
F|-----------------------------| 10x
C|---------6--9-----------7--7-|
G|-7-7-7-7--7---x-5-5-5-5--5---|
C|-----------------------------|

Intro part 2/chorus
|------------------------------------------------------------------------------------|
|------------------------------------------------------------------------------------|
|------------------------------------------------------------------------------------|
|------------------------------------------------------------------------------------|
|12-12-10/12\10-10-10-10/12\10-9-9-7-9-7\5-55/7-77-----------------------------------|
|12-12----------10-10----------9-9-7-9-7\5-55/7-77-----------------------------------|

Verse
|------------------------------------------------------------------------------------|
|------------------------------------------------------------------------------------|
|------------------------------------------------------------------------------------|
|------------------------------------------------------------------------------------|
|--77-10-7-9-77-9-10-9-7-9-10-9-77---------------------------------------------------|
|------------------------------------------------------------------------------------|
^^^Repeat 6x (first 3 palm muted)

Fill one (after first chorus) Its probably pretty off. Use wah
|------------------------------------------------------------------------------------|
|-/17~-15p14-15p14-15p14--14-----------------15--12-----------12--12-15-12-15--------|
|-----------------------16--16-12-16-12-14-12--14--12-14-12-14--14------------12~\---|
|------------------------------------------------------------------------------------|
|------------------------------------------------------------------------------------|
|------------------------------------------------------------------------------------|

I was unable to figure out the second fill. Ill post it when I figure it out.
Intro 1 10x
Intro 2 2x
Verse 
Intro 2(chorus) 4x
Intro 2(guitar 2 part) 2x
Verse 
Chorus 4x
Intro 1 10x
Chorus 4x
Intro 2 (guitar 2 part) 2x
Intro 1 till end!

Guitar 2 (same as guitar 1, but plays these power chords throughout the song)
|-------------|
|-------------|
|-------------|
|-7-5-3-------|
|-7-5-3-------|
|-7-5-3-------|
You can figure out where they go easily.
-12stoneslover33
            
Submit corrections

comments powered by Disqus
↑ Back to top | 12 Stones Tabs for 3 Leaf Loser. Lyrics for acoustic guitar and electric guitar. 1 Tablatures and chords are parodies/interpretations of the original songs. You may use it for private study, scholarship, research or language learning purposes only