» » »

12 Step Rebels, Skinwalkers Tabs (ver.1)

Artists:  A B C D E F G H I J K L M N O P Q R S T U V W X Y Z # 

Skinwalkers Tabs (ver.1)

12 Step Rebels Tabs
 Rating:
4.2/5 (5 votes)
Skinwalkers lessons Tabs too difficult? Try these video lessons and learn fast
1
                12 Step Rebels
Go Go Graveyard Rockin'


Intro
|----------------------------------------------------------------|
|----------------------------------------------------------------|
|----------------------------------------------------------------|
|----------------------------------------------------------------|
|2-22-22-2-0-2-3---------5-55-50-2-22-22-2-0-2-3-------------5-5-|
|----------------3-33-33-------------------------3-33-33-2-3-----|

|----------------------------------------------------------------|
|----------------------------------------------------------------|
|----------------------------------------------------------------|
|----------------------------------------------------------------|
|2-3-2-3-2-0-2-3-----------0-5-5-2-22-22-2-0-2-3---------5-5-5-5-|
|----------------3-2-0-2-3-----------------------3-33-33---------|

|----------------------------------------------------------------|
|----------------------------------------------------------------|
|-4-44-44-4-4-----4-44-44-4-4-----4-44-44-4-4-----4-44-44-4-4----|
|-4-44-44-4-4-5---4-44-44-4-4-5---4-44-44-4-4-5---4-44-44-4-4-5--|
|-2-22-22-2-2-5---2-22-22-2-2-5---2-22-22-2-2-5---2-22-22-2-2-5--|
|-------------3---------------3---------------3---------------3--|

Verse
|----------------------------------------------------------------|
|----------------------------------------------------------------|
|4-44-44-4-44-44---------7-77-77-4-44-44-4-44-44---------7-77-77-| (x4)
|4-44-44-4-44-44-5-55-55-7-77-77-4-44-44-4-44-44-5-55-55-7-77-77-|
|2-22-22-2-22-22-5-55-55-5-55-55-2-22-22-2-22-22-5-55-55-5-55-55-|
|----------------3-33-33-------------------------3-33-33---------|

Pre-Chorus
|----------------------------------------------------------------|
|-(That's when I noticed him...)---------------------------------|
|----------------4-------------------------------4-44----2-22----|
|4---------------4---------------4---------------4-44----2-22----|
|4---------------2---------------4---------------2-22----0-00----|
|2-------------------------------2-------------------------------|

|----------------------------------------------------------------|
|----------------------------------------------------------------|
|3---------------4-------------------------------4-44-44-2-22-22-|
|4---------------4---------------4---------------4-44-44-2-22-22-|
|4---------------2---------------4---------------2-22-22-0-00-00-|
|2-------------------------------2-------------------------------|

|----------------------------------------------------------------|
|-(Here...)------------------------------------------------------|
|----------------3-33-33-3-33-34-6-66-4-6------------------------|
|5-55-55-5-55-55-4-44-44-4-44-4----------------------------------|
|5-55-55-5-55-55-4-44-44-4-44-4----------------------------------|
|3-33-33-3-33-33-2-22-22-2-22-2----------------------------------|

Chorus
|-----------------------------------------------------------------|
|-(Theyre-Coming...)----------------------------------------------|
|4-444444--------7-777777--------4-444444--------7-777777---------|
|4-4444445-5555557-7777774-4444444-4444445-5555557-7777774-444444-|
|2-2222225-5555555-5555554-4444442-2222225-5555555-5555554-444444-|
|--------3-333333--------2-222222--------3-333333--------2-222222-|

|-----------------------------------------------------------------|
|-----------------------------------------------------------------|
|4-444444--------7-777777--------4-444444--------7-7777777-777777-|
|4-4444445-5555557-7777774-4444444-4444445-5555557-7777777-777777-|
|2-2222225-5555555-5555554-4444442-2222225-5555555-5555555-555555-|
|--------3-333333--------2-222222--------3-333333-----------------|

|----------------|
|----------------|
|----------------|
|4-4444444-444444
|4-4444444-444444
|2-2222222-222222

|----------------------------------------------------------------|
|----------------------------------------------------------------|
|4-44-44-4-------4-44-44-4-------4-44-44-4-------4-44-44-4-------|
|4-44-44-4-4-5-4-4-44-44-4-4-5-4-4-44-44-4-4-5-4-4-44-44-4-4-5-4-|
|2-22-22-2-4-5-4-2-22-22-2-4-5-4-2-22-22-2-4-5-4-2-22-22-2-4-5-4-|
|----------2-3-2-----------2-3-2-----------2-3-2-----------2-3-2-|

Repeat Verse
Repeat Pre-Chorus
Repeat Chorus

Solo
|7-777777--------*-******--------7-777777---------*-******--------|
|--------8-888888--------7-777777--------8-8888888--------7-8-*-8-|
|-----------------------------------------------------------------|
|-----------------------------------------------------------------|
|------note: 10 is denoted as * to keep timing--------------------|
|-----------------------------------------------------------------|

|7-*-9-----*-9---*-**-9----9-*-7-*-9------*-9---*-**-**-*-*-9-*--|
|--------8--------------7--------------8-------------------------|
|----------------------------------------------------------------|
|----------------------------------------------------------------|
|----------------------------------------------------------------|
|----------------------------------------------------------------|

|--------*-----7-------------------------------------------------|
|7--7--7---*-8---------------------------------------------------|
|----------------------------------------------------------------|
|----------------------------------------------------------------|
|----------------------------------------------------------------|
|----------------------------------------------------------------|

After Break
Repeat Chorus Chords
Repeat Chorus
            
Submit corrections

comments powered by Disqus
↑ Back to top | 12 Step Rebels Tabs for Skinwalkers. Lyrics for acoustic guitar and electric guitar. 1 Tablatures and chords are parodies/interpretations of the original songs. You may use it for private study, scholarship, research or language learning purposes only