>
 >
Perfect Night

Perfect Night Guitar Tabs

12 Step Rebels - Perfect Night chords, tabs, tablatures, lyrics

Guitar lessons | Add/correct | Request | Top 50 tabs Artists:  A B C D E F G H I J K L M N O P Q R S T U V W X Y Z 0-9

Perfect Night Guitar Tabs – 12 Step Rebels

CD, Sheet music, Poster

Do you like Perfect Night? Share with your friends now
Tabs
12 Step Rebels - Perfect Night - Mutilated Melodies - Track 7

|------------------------------------------------------------------------|
|------------------------------------------------------------------------|
|------------------------------------------------------------------------|
|2\----------------------------------------------------------------------|
|2\-(vibrato bar down)--------------(bass)-------------------------------|
|0\----------------------------------------------------------------------|

|-----------------------------------------------------------------------|
|-----------------------------------------------------------------------|
|---------------------------------------------5-5-----------------------|
|2-------2-------2---5---7---5-5--2-2-5-5-2-2-5-5-2-2-5-5-7-7-5-5-------|
|2-------2--/3---2---5---7---5-5--2-2-5-5-2-2-3-3-2-2-5-5-7-7-5-5-------|
|0--/3--\0------\0--/3--/5---3-3--0-0-3-3-0-0-----0-0-3-3-5-5-3-3-------|

|-----------------------------------------------------------------------|
|-----------------------------------------------------------------------|
|------------5----------------------------------------------------------|
|--2-5-----2-5-----2-5---7---5-5----------------------------------------|
|--2-5-----2-3-----2-5---7---5-5-----2-3-----2-3-----2-3-5-3-2-3--------|
|--0-3-----0-------0-3---5---3-3-0-3-----0-3-----0-3--------------------|

|-----------------------------------------------------------------------|
|-----------------------------------------------------------------------|
|-----------------------------------------------------------------------|
|----2-3-----2-3-----2-3-5-3-2------------------------------------------|
|0-3-----0-3-----0-3-----------3-----2-3-----2-3-----2-3-5-3-2-3--------|
|--------------------------------0-3-----0-3-----0-3--------------------|

|-----------------------------------------------------------------------|
|-----------------------------------------------------------------------|
|4-------5-------7--777--777--777---------------------------------------|
|4-------5-------7--777--777--777---------------------------------------|
|2-------3-------5--555--555--555---------------------------------------|
|-----------------------------------------------------------------------|


|-VERSE-----------------------------------------------------------------|
|-----------------------------------------------------------------------|
|------------5-5-----------------------------5-5----------------------.-|
|2-2-5-5-2-2-5-5-2-2-5-5-7-7-5-5-2-2-5-5-2-2-5-5-2-2-5-5-7-7-5-5------.-|
|2-2-5-5-2-2-3-3-2-2-5-5-7-7-5-5-2-2-5-5-2-2-3-3-2-2-5-5-7-7-5-5--------|
|0-0-3-3-0-0-----0-0-3-3-5-5-3-3-0-0-3-3-0-0-----0-0-3-3-5-5-3-3--------|

|-CHORUS----------------------------------------------------------------|
|------------------1---------------0------------------------------------|
|------------------2---------------0---------------4---5---7--7--7777---|
|------------------2---------------2---------------4---5---7--7--7777---|
|------------------0---------------2---------------2---3---5--5--5555---|
|(0)-------------------------------0------------------------------------|

|-----------------------------------------------------------------------|
|-----------------------------------------------------------------------|
|------------5-5-----------------------------5-5----------------------.-|
|2-2-5-5-2-2-5-5-2-2-5-5-7-7-5-5-2-2-5-5-2-2-5-5-2-2-5-5-7-7-5-5------.-|
|2-2-5-5-2-2-3-3-2-2-5-5-7-7-5-5-2-2-5-5-2-2-3-3-2-2-5-5-7-7-5-5--------|
|0-0-3-3-0-0-----0-0-3-3-5-5-3-3-0-0-3-3-0-0-----0-0-3-3-5-5-3-3--------|

|------------0----------------------------------------------------------|
|0------------0--1-----------00-00--------------------------------------|
|0-------------0-2-----------00-00---------------4---5---7-7-7777-------|
|2---------------2-----------22-22---------------4---5---7-7-7777-------|
|2---------------0-----------22-22---------------2---3---5-5-5555-------|
|0---------------------------00-00--------------------------------------|

|-----------------------------------------------------------------------|
|-----------------------------------------------------------------------|
|------------5-5-----------------------------5-5----------------------.-|
|2-2-5-5-2-2-5-5-2-2-5-5-7-7-5-5-2-2-5-5-2-2-5-5-2-2-5-5-7-7-5-5------.-|
|2-2-5-5-2-2-3-3-2-2-5-5-7-7-5-5-2-2-5-5-2-2-3-3-2-2-5-5-7-7-5-5--------|
|0-0-3-3-0-0-----0-0-3-3-5-5-3-3-0-0-3-3-0-0-----0-0-3-3-5-5-3-3--------|

|-----------------------------------------------------------------------|
|0------------11-1-----------00-00--------------------------------------|
|0------------22-2-----------00-00---------------4---5---7-7-7777-------|
|2------------22-2-----------22-22---------------4---5---7-7-7777-------|
|2------------00-0-----------22-22---------------2---3---5-5-5555-------|
|0-(vibrato down)------------00-00--------------------------------------|

|---------------------------------------------------------------------||
|---------------------------------------------------------------------||
|------------5-5-----------------------------5-5----------------------||
|2-2-5-5-2-2-5-5-2-2-5-5-7-7-5-5-2-2-5-5-2-2-5-5-2-2-5-5-7-7-5-4-2----||
|2-2-5-5-2-2-3-3-2-2-5-5-7-7-5-5-2-2-5-5-2-2-3-3-2-2-5-5-7-7-5-4-2----||
|0-0-3-3-0-0-----0-0-3-3-5-5-3-3-0-0-3-3-0-0-----0-0-3-3-5-5-3-2-0----||





Comments


Popular 12 Step Rebels tabs & chords
2000 Years Tabs
Ballad Of Frankensteins Monster Tabs
Happy Songs Intro Tabs
Skinwalkers Tabs


Song lyrics



↑ Back to top | Tablatures and chords are parodies/interpretations of the original songs. You may use it for private study, scholarship, research or language learning purposes only
© 2014 AZChords.com Contact us | Privacy policy | DMCA | Add/correct tabs | Request tabs | Top 50 tabs