» » »

Tension Bass tabs (ver.1)

Artists:  A B C D E F G H I J K L M N O P Q R S T U V W X Y Z # 

Tension Bass tabs (ver.1)

11 23
Rating:
0/5 (0 votes)

Hard to play? Try these video lessons and learn fast.
                "(1)
Verse
1st
1---------------------------------------------------------------------------
2---------------------------------------------------------------------------
3------------------5555--7777----------------5555-7777-5-0-----
4---55555555------------------55555555--------------------------  X2
 2nd
1------------------------------------------------------------------------------
2------------------------------------------------------------------------------
3------------------55--77--0-------------------------------------------------
4---55555555------------------------------------------------------------  X2

Bridge
1-----------------------------------------------------------------------------
2-----------------------------------------------------------------------------
3---55555555------------------------------------------------------------
4------------------77777777-55555555-3333-5555--------------  X2

Chorus
1-----------------------------------------------------------------------------
2-----------------------------------------------------------------------------
3------------------55-77----------------5555-7777-5-0---------------
4---55555555----------55555555------------------------------------

Bass Solo
1-----------------------------------------------------------------------------
2-----------------------------------------------------------------------------
3-------55-77-10-10--0-55-77----------------------------------------
4---55--------------------------------5------------------------------------

Verse
Bridge
Verse
Chorus
Bridge
Verse (first part only)
Chorus
Bridge
Bass Solo
"            
Hard to play? Try these video lessons and learn fast. | Correct




comments powered by Disqus
↑ Back to top | Tablatures and chords are parodies/interpretations of the original songs. You may use it for private study, scholarship, research or language learning purposes only