» » »

11 23, Live Instrumental Inrtoduction Tabs (ver.1)

Artists:  A B C D E F G H I J K L M N O P Q R S T U V W X Y Z # 

Live Instrumental Inrtoduction Tabs (ver.1)

11 23 Tabs
 Rating:
4/5 (4 votes)
Live Instrumental Inrtoduction lessons Tabs too difficult? Try these video lessons and learn fast
1
                6---4-4-4-4-5-4-4-4-5-4-4-4-5-4-4------------------  X2

6---0-0-0-0-1-0-0-0-1-0-0-0-1-0-0------------------  X2

5---4-4-4-4-4-4-4-4----------------------------------------
6-------------------5-5-5-5-4-4-4-4------------------------  X4

5--0-0-0-0-0-0-0-0-----------------------------------------
6------------------1-1-1-1-0-0-0-0-------------------------  X4 

4--4-4-4-4-4-4-4-4--------------------------------------
5--2-2-2-2-2-2-2-2-4-4-4-4-4-4-4-4-6-6-6-6-6-6-6-6-5-5-5-5-4-4-4-4---
6------------------2-2-2-2-2-2-2-2-4-4-4-4-4-4-4-4-3-3-3-3-2-2-2-2--- X2
            
Submit corrections

comments powered by Disqus
↑ Back to top | 11 23 Tabs for Live Instrumental Inrtoduction. Lyrics for acoustic guitar and electric guitar. 1 Tablatures and chords are parodies/interpretations of the original songs. You may use it for private study, scholarship, research or language learning purposes only