» »

/0-9/112-tabs-5714.html

»

112, It's Over Now Chords (ver.1)

Artists:  A B C D E F G H I J K L M N O P Q R S T U V W X Y Z # 

It's Over Now Chords (ver.1)

112 Tabs
Rating:
0/5 (0 votes)
It's Over Now lessons Tabs too difficult? Try these video lessons and learn fast
                This is the begining guitar and can be played the whole song.
Its really just 2 chords, D minor and A minor

e----0--1--1----(3)---1---------------------------|
B--3-------3----3----3----------------------------|
G----------2----2----2----------------------------|              D MINOR   (Dm)
D----------0----0----0----------------------------|
A-------------------------------------------------|
E-------------------------------------------------|

Learn the strumming with the song, and throw in the (hammer on) when it comes


e--0---5---3---0---------------------------------------------|
B--1---------------------------------------------------------|
G--2---------------------------------------------------------|
D--2---------------------------                A MINOR-------|      (Am)
A--0---------------------------------------------------------|
E------------------------------------------------------------|

Dm
What is this, numbers in your pocket

            Am
I remember when you

Used to throw those things away

Dm
Why do you wanna keep in touch now

               Am
Who gave you a reason

To act so shady

Dm
Baby you know, you can call me anytime

                                      Am
Anything you needed I would give it to you

That's how much I care for you

Dm
You wanna act now, never call me back now

Turning off your cell phone

                          Am
Girl you know that ain't cool

I don't understand baby

Dm
Baby it's a shame we gotta go through this

                 Am
We can't even talk

Girl we don't even kiss

                         Dm
I never would've thought

We'd be breaking up like this

           Am
But it's over now

It's over now

you get the point, jam on
            
Submit corrections

comments powered by Disqus
↑ Back to top | 112 Chords for It's Over Now. Lyrics for acoustic guitar and electric guitar. Tablatures and chords are parodies/interpretations of the original songs. You may use it for private study, scholarship, research or language learning purposes only