» »

/0-9/112-tabs-5714.html

»

Cupid Tabs (ver.4)

Artists:  A B C D E F G H I J K L M N O P Q R S T U V W X Y Z # 

Cupid Tabs (ver.4)

112
Rating:
0/5 (0 votes)

Hard to play? Try these video lessons and learn fast.
                My first tab ever..112's CUPID..not the same as the original..just OGjuggernauts 
"KickBack" version


INTRO
/=slide up
x=slap string (6th string preferred)
h=hammer on

Capo on 2nd or 3rd fret sounds best

Standard Tuning...so simple

E|-----------------------------------2(pick)---------------------|
B|--------------------3--3--------3--3(pick)---3----3--3--3----3-|
G|--2---------0--2--4----2----2/4----0(pick)---0---0---0--0----0-|
D|----0--2--4------------0-----------0(strum)--------------------|
A|-----------------------------------2(strum)--2--2--------------|
E|----------------------------------(0)------x--------3-x-3--3---|
                                     ^optional, sounds good with the low E

E|--------0------2h3-2---------------3---------------3-|
B|------3--3----3-----3---------------3------------3-3-|
G|-----0----0--2-------2----------0----0---------0-----|
D|----2-------0---------0------0h2--------0h2----------|
A|---3-----------------------0h2--------------0h2------|
E|--------------------------0------------3-------------|

E|--------3-0-----2h3-2----------------3-------2---3--|
B|------3----3---3-----3----------------3-----3----3--|
G|-----0--------2-------2-----------0----0---2----0---|
D|----2--------0---------0-------0h2------------------|
A|---3--------------------------0h2-------------------|
E|----------------------------0-------------2----3----|


VERSE/CHORUS

E|-----------------2--------2(pick)--------------------|
B|----3---3----3---3------3-3(pick)--3----3---3--3---3-|
G|----0---0----0---2--2/4---0(pick)--0---0----0--0---0-|
D|----2---2----2--0--0------0(strum)-------------------|
A|--3-----3--3--------------2(strum)-2--2--------------|
E|-----x------------x---------------x--------3-x-3--3--|
      Girl when I tell you I love you........

repeat verse/chorus until bored

ENJOY!~
            
Hard to play? Try these video lessons and learn fast. | Correct




comments powered by Disqus
↑ Back to top | Tablatures and chords are parodies/interpretations of the original songs. You may use it for private study, scholarship, research or language learning purposes only