» »

/0-9/112-tabs-5714.html

»

112, Cupid Tabs (ver.1)

Artists:  A B C D E F G H I J K L M N O P Q R S T U V W X Y Z # 

Cupid Tabs (ver.1)

112 Tabs
Rating:
3/5 (5 votes)
Cupid lessons Tabs too difficult? Try these video lessons and learn fast
                112 - Cupid

Inspired by many other guitarists, my friend and I decided to tab this song
a while back. There is actually two ways you can play this tab, you can change
it up a little throughout the song to give the riff a less repetitive feel =p
The tabs are repeated throughout the entire song..

===================
Tessijia's Version
===================
E|-----------------------2---------------------------|
B|---3-3---3---3-------3-3-3-------------------------|
G|---0-0---0---2---2/4-----0---0---------2---------0-|
D|---2-2---2-0---0---------------------0--------0h2--|
A|-3---3-3---------------2-2-2---------------0h2-----|
E|-------------------------------0-0h2-----3---------|

OR

=====================
Nigga Hung's version
=====================
E|---------------------2----------------------------|
B|----3---3------3-------3~---3---------------------|
G|---0---2-2-2/4-----0------0-----------2---------0-|
D|--2---0-----------------------------0--------0h2--|
A|-3---------------2------------------------0h2-----|
E|------------------------------0-0h2-----3---------|


PS: Using a Capo on 2nd or 3rd Fret sounds pretty nice! Hope you like it!

Tessijia & Nigga Hung~
            

comments powered by Disqus
↑ Back to top | 112 Tabs for Cupid. Lyrics for acoustic guitar and electric guitar. Tablatures and chords are parodies/interpretations of the original songs. You may use it for private study, scholarship, research or language learning purposes only