» » »

10 Years, Wasteland Tabs (ver.12)

Artists:  A B C D E F G H I J K L M N O P Q R S T U V W X Y Z # 

Wasteland Tabs (ver.12)

10 Years Tabs
Rating:
0/5 (0 votes)
Wasteland lessons Tabs too difficult? Try these video lessons and learn fast
                
This is a great song, plus I know these guys so this is a particular honor to tab.

Tuning: Drop C# (1/2 step down)

Slow tempo

  Intro
  clean
D#|--------------------|----------------|---------------|------------------|
Bb|----3-(3)-(3)-(3)---|--3-(3)-(3)-(3)-|---------------|------------------|
F#|--------------------|----------------|---------------|------------------|
C#|-1----------------1/|3---------------|-5-(5)-(5)-(5)-|-(5)-(5)-(5)-(5)--|
G#|-1----------------1/|3---------------|-5-(5)-(5)-(5)-|-(5)-(5)-(5)-(5)--|
C#|-1----------------1/|3---------------|-5-(5)-(5)-(5)-|-(5)-(5)-(5)-(5)--|

    Fill 1
    w/dist.
D#|----------------|----------------|---------------------------------------|
Bb|---3-3-(3)-(3)--|---3-3-(3)------|---------------------------------------|
F#|----------------|----------------|---------------------------------------|
C#|-1------------5-|-3---------5555-|---------------------------------------|
G#|-1------------3-|-3---------3333-|---------------------------------------|
C#|-1--------------|-3--------------|---------------------------------------|

  Verse
    PM................|         PM...................................|
D#|---------------------|-----|---------------------|----------------------|
Bb|---------------------|-----|---------------------|----------------------|
F#|---------------------|-----|------3333-2222-0000-|------5555------------|
C#|-5555-8888-7777-5888-|--%--|-1111-1111-1111-1111-|-0000-0000-3333-3-----|
G#|-5555-5555-5555-5888-|-----|-1111-1111-1111-1111-|-0000-0000-3333-3-----|
C#|-5555-5555-5555-5888-|-----|-1111-1111-1111-1111-|-0000-0000-3333-3030--|

    PM................|
D#|---------------------|-----|----------------|----------------|-----------|
Bb|---------------------|-----|---3-3-(3)-(3)--|---3-3-(3)------|-----------|
F#|---------------------|-----|----------------|----------------|-----------|
C#|-5555-8888-7777-5888-|--%--|-1------------5-|-3---------5555-|-----------|
G#|-5555-5555-5555-5888-|-----|-1------------3-|-3---------3333-|-----------|
C#|-5555-5555-5555-5888-|-----|-1--------------|-3--------------|-----------|

   Chorus
   Gtr. 1
D#|---------------------|--------------------------------------|------------|
Bb|---------------------|--------------------------------------|------------|
F#|---------------------|--------------------------------------|------------|
C#|-5555-5555-5555-5555-|--5-5-5-5--5-5-5-5--5-5-5-5--5-5-5-5--|------------|
G#|-5555-5555-5555-5555-|--5-5-5-5--5-5-5-5--5-5-5-5--5-5-5-5--|------------|
C#|-5555-5555-5555-5555-|--5-5-5-5--5-5-5-5--5-5-5-5--5-5-5-5--|------------|
  | Gtr. 2
D#|---------------------|--------------------------------------|------------|
Bb|---------------------|--------------------------------------|------------|
F#|---------------------|-/12121212-12121212-12141414-14151515-|------------|
C#|-5555-5555-5555-5555-|-/x-x-x-x--x-x-x-x--x-x-x-x--x-x-x-x--|------------|
G#|-5555-5555-5555-5555-|-/10101010-10101010-10121212-12131313-|------------|
C#|-5555-5555-5555-5555-|--------------------------------------|------------|

   Both guitars
D#|---------------|----------------|----------------------------------------|
Bb|---3-3-(3)(3)--|---3-3-(3)------|----------------------------------------|
F#|---------------|----------------|----------------------------------------|
C#|-1-----------5-|-3---------5555-|----------------------------------------|
G#|-1-----------3-|-3---------3333-|----------------------------------------|
C#|-1-------------|-3--------------|----------------------------------------|

   Repeat vere (1X)
   Then...

   Gtr. 1
    PM.......................................|
D#|---------------------|---------------------|------------|----------------|
Bb|---------------------|---------------------|------------|----------------|
F#|---------------------|---------------------|------------|----------------|
C#|-5555-8888-7777-5888-|-5555-8888-7777-5888-|--(Fill 1)--|----------------|
G#|-5555-5555-5555-5888-|-5555-5555-5555-5888-|------------|----------------|
C#|-5555-5555-5555-5888-|-5555-5555-5555-5888-|------------|----------------|
  | Gtr. 2
  | PM.......................|
D#|---------------------|---------------------|------------|----------------|
Bb|---------------------|---------------------|------------|----------------|
F#|---------------------|---------------------|------------|----------------|
C#|-5555-8888-7777-5888-|-5555-8888-7777-5888-|--(Fill 1)--|----------------|
G#|-5555-5555-5555-5888-|-5555----------------|------------|----------------|
C#|-5555-5555-5555-5888-|-5555----------------|------------|----------------|

    Bridge (4X)
    Gtr. 1
     .   .
D#|----------|---------------------------------|----------------------------|
Bb|----------|---------------------------------|----------------------------|
F#|----------|---------------------------------|----------------------------|
C#|-55--55---|-1-1-1-1--(1)--1--1-3-3-3--(3)-3-|----------------------------|
G#|-55--55---|-1-1-1-1--(1)--1--1-3-3-3--(3)-3-|----------------------------|
C#|-55--55---|-1-1-1-1--(1)--1--1-3-3-3--(3)-3-|----------------------------|
  | Gtr. 2
  |  .   .
D#|----------|----------------------------------|---------------------------|
Bb|----------|----------------------------------|---------------------------|
F#|----------|-12121212-(12)-12-12101010-(10)10-|---------------------------|
C#|-55--55---|-x-x-x-x--(x)--x--x--x-x-x-(x)-x--|---------------------------|
G#|-55--55---|-10101010-(10)-10-10-8-8-8-(8)-8--|---------------------------|
C#|-55--55---|----------------------------------|---------------------------|

                   Feedback fades in
D#|---------------|-----------------|----------|----------|-----------------|
Bb|-8-(8)-(8)-(8)-|-(8)-(8)-(8)-(8)-|----------|----------|-----------------|
F#|-7-(7)-(7)-(7)-|-(7)-(7)-(7)-(7)-|----------|----------|-----------------|
C#|-5-(5)-(5)-(5)-|-(5)-(5)-(5)-(5)-|--Fill 1--|--Chorus--|-----------------|
G#|-5-(5)-(5)-(5)-|-(5)-(5)-(5)-(5)-|----------|----------|-----------------|
C#|-5-(5)-(5)-(5)-|-(5)-(5)-(5)-(5)-|----------|----------|-----------------|

   Conclusion
    PM..................|
D#|-----------------------|-----------------|-----------------|-------------|
Bb|-----------------------|-----------------|---3-3-(3)-(3)---|-------------|
F#|-----------------------|-----------------|-----------------|-------------|
C#|-5555-55555-5555-55555-|-5--5--5--5--5-5-|-1-------------5-|-------------|
G#|-5555-55555-5555-55555-|-5--5--5--5--5-5-|-1-------------3-|-------------|
C#|-5555-55555-5555-55555-|-5--5--5--5--5-5-|-1---------------|-------------|

                     .
D#|---------------|-------------|-------------------------------------------|
Bb|---3-3---------|-------------|-------------------------------------------|
F#|---------------|-------------|-------------------------------------------|
C#|-3-----3-(3)-3-|-55----------|--END--------------------------------------|
G#|-3-----3-(3)-3-|-55----------|-------------------------------------------|
C#|-3-----3-(3)-3-|-55----------|-------------------------------------------|


| .  staccato (by itself)
| PM palm mute
| /  slide up
| \  slide down
| h  hammer-on
| p  pull-off
| ~  vibrato
| +  harmonic
| x  Mute note
==============================================================
            
Submit corrections

comments powered by Disqus
↑ Back to top | 10 Years Tabs for Wasteland. Lyrics for acoustic guitar and electric guitar. Tablatures and chords are parodies/interpretations of the original songs. You may use it for private study, scholarship, research or language learning purposes only