» » »

10 Years, Wasteland Tabs (ver.9)

Artists:  A B C D E F G H I J K L M N O P Q R S T U V W X Y Z # 

Wasteland Tabs (ver.9)

10 Years Tabs
 Rating:
4/5 (4 votes)
Wasteland lessons Tabs too difficult? Try these video lessons and learn fast
                "Wasteland"

=====================================================================

Tuning:
Db Ab Db Gb Db Db

Symbols:
/  = slide up
\  = slide down
<> = harmonic

=====================================================================
Intro:

Db ------0-(ring)-------0-(ring)---0--|
Db --------------------------------0--|
Gb --------------------------------X--|
Db --------------------------------5--|
Ab --------------------------------5--|
Db ---1-------------1/3------------5--|


Db ------0-(ring)------------0-(ring)--------------|
Db ------0-(ring)------------0-(ring)--------------|
Gb ------------------------------------------------|
Db ---1------------1-1/10\3--------------10-10-10--|
Ab ---1------------1-1/10\3--------------10-10-10--|
Db ---1------------1-1/10\3--------------10-10-10--|

=====================================================================
Verses:

Guitar 1 -
1st Verse, Play 3.5X (Last time through, only first 2 segments are played)
2nd verse, Play 1.5X

Db --------------------------------------------------|
Db --------------------------------------------------|
Gb --------------------------------------------------|
Db ---5--5--5--5--8--8--8--7--7----------------------|
Ab ------------------------------8--8--8--8--8--8--8-|
Db --------------------------------------------------|

Db --------------------------------------------------|
Db --------------------------------------------------|
Gb --------------------------------------------------|
Db ---5--5--5--5--8--8--8--7--7----------------------|
Ab ------------------------------8--8--8--8--8--8--8-|
Db --------------------------------------------------|

Db --------------------------------------------------|
Db --------------------------------------------------|
Gb --------------------------------------------------|
Db ---------------7--7--7--8--8--8--8--8--8--8--8--8-|
Ab ---6--6--6--6-------------------------------------|
Db --------------------------------------------------|

Db --------------------------------------------------|
Db --------------------------------------------------|
Gb ---------------5--5--5--3--3----------------------|
Db ------------------------------3--3--3--3--3--3--3-|
Ab ---5--5--5--5-------------------------------------|
Db --------------------------------------------------|

Guitar 2 -
1st Verse, enter on Guitar 1's third loop
2nd Verse, only play 2nd segment

Db --------------------------------12----------------|
Db -------<12>(ring)------------------10-------------|
Gb ---<12>(ring)--------------------------10(ring)---|
Db --------------------------------------------------|
Ab --------------------------------------------------|
Db --------------------------------------------------|

Db ------------17(ring)---|
Db -------<12>(ring)------|
Gb ---<12>(ring)----------|
Db -----------------------|
Ab -----------------------|
Db -----------------------|

End of verse, both guitars -

Db -------0-(ring)-----------0-(ring)--------------|
Db -------0-(ring)-----------0-(ring)--------------|
Gb ------------------------------------------------|
Db ---1------------1-1/10\3--------------10-10-10--|
Ab ---1------------1-1/10\3--------------10-10-10--|
Db ---1------------1-1/10\3--------------10-10-10--|

=====================================================================
Chorus:

Guitar 1 - Play 2x

Db --------------------------------------------------|
Db --------------------------------------------------|
Gb --------------------------------------------------|
Db ---5--5--5--5--5--5--5--5--5--5--5--5--5--5--5--5-|
Ab ---5--5--5--5--5--5--5--5--5--5--5--5--5--5--5--5-|
Db ---5--5--5--5--5--5--5--5--5--5--5--5--5--5--5--5-|

Db -------0-(ring)-----------0-(ring)--------------|
Db -------0-(ring)-----------0-(ring)--------------|
Gb ------------------------------------------------|
Db ---1------------1-1/10\3--------------10-10-10--|
Ab ---1------------1-1/10\3--------------10-10-10--|
Db ---1------------1-1/10\3--------------10-10-10--|

Guitar 2 - Play 2x

Db --------------------------------------------------|
Db --------------------------------------------------|
Gb ---------------------------12--12--14--14/15-15---|
Db ---5--5--5--5--5--5--5--5-------------------------|
Ab ---5--5--5--5--5--5--5--5--10--10--12--12/13-13---|
Db ---5--5--5--5--5--5--5--5-------------------------|

Db -------0-(ring)-----------0-(ring)--------------|
Db -------0-(ring)-----------0-(ring)--------------|
Gb ------------------------------------------------|
Db ---1------------1-1/10\3--------------10-10-10--|
Ab ---1------------1-1/10\3--------------10-10-10--|
Db ---1------------1-1/10\3--------------10-10-10--|

=====================================================================
Bridge:

Guitar 1 - Play 4x
Db ----------------------------------------------------|
Db ----------------------------------------------------|
Gb ----------------------------------------------------|
Db ---5--5--------5--5--------1--1--1--1--1/3--3--3--3-|
Ab ---5--5--------5--5--------1--1--1--1--1/3--3--3--3-|
Db ---5--5--------5--5--------1--1--1--1--1/3--3--3--3-|

Guitar 2 - Play 4x
Db -------------------------------------------------------------|
Db -------------------------------------------------------------|
Gb ---------------------------12--12--12--12--12\10--10--10--10-|
Db ---5--5--------5--5------------------------------------------|
Ab ---5--5--------5--5--------10--10--10--10--10\8---8---8---8--|
Db ---5--5--------5--5------------------------------------------|

=====================================================================
Outro Chorus

Db ----0-------|
Db ----0-------|
Gb ----X-------|
Db ----5-------|
Ab ----5-------|
Db-----5-------|

Db ------0-(ring)-------0-(ring)---0--|
Db --------------------------------0--|
Gb --------------------------------X--|
Db --------------------------------5--|
Ab --------------------------------5--|
Db ---1-------------1/3------------5--|

Db -------0-(ring)-----------0-(ring)--------------|
Db -------0-(ring)-----------0-(ring)--------------|
Gb ------------------------------------------------|
Db ---1------------1-1/10\3--------------10-10-10--|
Ab ---1------------1-1/10\3--------------10-10-10--|
Db ---1------------1-1/10\3--------------10-10-10--|

Each guitar then plays its separate main-chorus part 1 time through, then

Db ---------------------------------------------------|
Db ---------------------------------------------------|
Gb ---------------------------------------------------|
Db ---5--5--5--5--5--5--5--5--5--5--5--5--5--5--5--5--|
Ab ---5--5--5--5--5--5--5--5--5--5--5--5--5--5--5--5--|
Db ---5--5--5--5--5--5--5--5--5--5--5--5--5--5--5--5--|
p.m.--X--X--X--X--X--X--X--X--X--X--X--X--X--X--X--X--|

Db --------------------------------------------------|
Db --------------------------------------------------|
Gb --------------------------------------------------|
Db ---5--5--5--5--5--5--5--5--5--5--5--5--5--5--5--5-|
Ab ---5--5--5--5--5--5--5--5--5--5--5--5--5--5--5--5-|
Db ---5--5--5--5--5--5--5--5--5--5--5--5--5--5--5--5-|

Db -------0-(ring)-----------0-(ring)------------------|
Db -------0-(ring)-----------0-(ring)------------------|
Gb ----------------------------------------------------|
Db ---1------------1-1/10\3--------------10-10-10--5-5-|
Ab ---1------------1-1/10\3--------------10-10-10--5-5-|
Db ---1------------1-1/10\3--------------10-10-10--5-5-|

====================================================================
            
Submit corrections

comments powered by Disqus
↑ Back to top | 10 Years Tabs for Wasteland. Lyrics for acoustic guitar and electric guitar. Tablatures and chords are parodies/interpretations of the original songs. You may use it for private study, scholarship, research or language learning purposes only