» » »

10 Years, Wasteland Tabs (ver.7)

Artists:  A B C D E F G H I J K L M N O P Q R S T U V W X Y Z # 

Wasteland Tabs (ver.7)

10 Years Tabs
 Rating:
4/5 (4 votes)
Wasteland lessons Tabs too difficult? Try these video lessons and learn fast
1
                 Great song... it's my first attemp, please be nice !
 Cheers !

10 Years - Wasteland 
======================================
Title     : Wasteland
Band      : 10 Years
Tuning    : Drop D |DADGBe|
======================================


  ( 3/10 Volume )
e|-------------------------|-------------------------|
B|---2-------------2-------|-------------------------|
G|-------------------------|-------------------------|
D|-0----------0-h2---------|--4----------------------|
A|-0----------0-h2---------|--4----------------------|
D|-------------------------|-------------------------|
                               Change my ......

  (Full Volume)
e|------------------------------|
B|---2-------------2------------|
G|-------------4-------------4--|
D|-0-----------4-2-----------4--|
A|-0-----------2-2-----------2--|
D|-0-------------2--------------|


***************************************************************************
* PALM MUTE PART 1 *  This Block ( 3 times )                              *
********************                                                      *
*                                                                         *
* e|---------------------------------|---------------------------------|  *
* B|---------------------------------|---------------------------------|  *
* G|---------1-1-1-0-0-0-------------|---------1-1-1-0-0-0-------------|  *
* D|-3-3-3-3-------------1-1-1-1-1-1-|-3-3-3-3-------------1-1-1-1-1-1-|  *
* A|---------------------------------|---------------------------------|  *
* D|---------------------------------|---------------------------------|  *
*    x x x x x x x x x x x x x x x x   x x x x x x x x x x x x x x x x    *
* 1st Crouched over...                                                    *
* 2nd But I will not....                                                  *
* 3rd Die, withdraw...                                                    *
*                                                                         *
*                                                                         *
* e|---------------------------------|---------------------------------|  *
* B|---------------------------------|---------------------------------|  *
* G|---------1-1-1-1-1-1-1-1-1-1-1-1-|---------3-3-3-0-0-0-0-0-0-0-0-0-|  *
* D|-3-3-3-3-------------------------|-3-3-3-3-------------------------|  *
* A|---------------------------------|---------------------------------|  *
* D|---------------------------------|---------------------------------|  *
*    x x x x x x x x x x x x x x x x   x x x x x x x x x x x x x x x x    *
* 1st But signs...                                                        *
* 2nd And please see...                                                   *
* 3rd Ignore remorse...                                                   *
*                                                                         *
***************************************************************************

e|---------------------------------|---------------------------------|
B|---------------------------------|---------------------------------|
G|---------1-1-1-0-0-0-------------|---------------2-2-1-1-----------|
D|-3-3-3-3-------------1-1-1-1-1-1-|-3-3-3-3-3-4-4---------2b-/4-----|
A|---------------------------------|-----------4-4-------------------|
D|---------------------------------|---------------------------------|
   x x x x x x x x x x x x x x x x   x x x x x 
4th This time...




e|------------------------------|
B|---2-------------2------------|
G|-------------4-------------4--|
D|-0-----------4-2-----------4--|
A|-0-----------2-2-----------2--|
D|-0-------------2--------------|


Chorus
======
e|--------------------------------------------------|
B|-----------------------2-------------2------------|
G|---------------------------------4-------------4--|
D|--4------------------0-----------4-2-----------4--|  X2
A|--4------------------0-----------2-2-----------2--|
D|--4------------------0-------------2--------------|
  Change my attempt...
  Here we are with...



**************************************************************************
* PALM MUTE PART 2 *   
********************

e|---------------------------------|---------------------------------|
B|---------------------------------|---------------------------------|
G|---------1-1-1-0-0-0-------------|---------1-1-1-0-0-0-------------|
D|-3-3-3-3-------------1-1-1-1-1-1-|-3-3-3-3-------------1-1-1-1-1-1-|
A|---------------------------------|---------------------------------|
D|---------------------------------|---------------------------------|
   x x x x x x x x x x x x x x x x   x x x x x x x x x x x x x x x x    
  Crowned hopeless...


e|---------------------------------|---------------------------------|
B|---------------------------------|---------------------------------|
G|---------1-1-1-1-1-1-1-1-1-1-1-1-|---------3-3-3-0-0-0-0-0-0-0-0-0-|
D|-3-3-3-3-------------------------|-3-3-3-3-------------------------|
A|---------------------------------|---------------------------------|
D|---------------------------------|---------------------------------|
   x x x x x x x x x x x x x x x x   x x x x x x x x x x x x x x x x    
  This time...


e|---------------------------------|---------------------------------|
B|---------------------------------|---------------------------------|
G|---------1-1-1-0-0-0-------------|-----------2-2-1-1-1-1-----------|
D|-3-3-3-3-------------1-1-1-1-1-1-|-3-3-3-3-3-------------2-2-2/4---|
A|---------------------------------|---------------------------------|
D|---------------------------------|---------------------------------|
   x x x x x x x x x x x x x x x x  x x x x x 
  But I...

**************************************************************************



e|------------------------------|
B|---2-------------2------------|
G|-------------4-------------4--|
D|-0-----------4-2-----------4--|
A|-0-----------2-2-----------2--|
D|-0-------------2--------------|


Chorus
======
e|--------------------------------------------------|
B|-----------------------2-------------2------------|
G|---------------------------------4-------------4--|
D|--4------------------0-----------4-2-----------4--|  X2
A|--4------------------0-----------2-2-----------2--|
D|--4------------------0-------------2--------------|
  Change my attempt...
  Here we are with...


Bridge
======
e|--------------------|
B|--------------------|
G|-----------11----9--|
D|-44---44----X----X--|  X4
A|-44---44----9----7--|
D|--------------------|
                    
  ...................
  Heave the silver...
  Turn and tremble...
  Blind the face...



  ( 3/10 Volume )
e|----------------------|------------------------|--2---------------------|
B|----------------------|---2-------------2------|--2---------------------|
G|----------------------|------------------------|--3---------------------|
D|-4--------------------|-0----------0-h2--------|--4---------------------|
A|-4--------------------|-0----------0-h2--------|--4---------------------|
D|----------------------|------------------------|------------------------|
   Change my ......       Limbs ...                 Self ......

  
  (Full Volume)
e|------------------------------|
B|---2-------------2------------|
G|-------------4-------------4--|
D|-0-----------4-2-----------4--|
A|-0-----------2-2-----------2--|
D|-0-------------2--------------|
  Should I...


Chorus
======
e|--------------------------------------------------|
B|-----------------------2-------------2------------|
G|---------------------------------4-------------4--|
D|--4------------------0-----------4-2-----------4--|  
A|--4------------------0-----------2-2-----------2--|
D|--4------------------0-------------2--------------|
  Change my attempt...


e|---------------------------------|------------------------------------|
B|---------------------------------|-----------------------2--------2---|
G|---------------------------------|----------------------------4-------|
D|-3-3-3-3-3-3-3-3-3-3-3-3-3-3-3-3-|-4-44-44---4-444-444-0------4-2-----|
A|---------------------------------|-4-44-44---4-444-444-0------2-2-----|
D|---------------------------------|-4-44-44---4-444-444-0--------2-----|
   x x x x x x x x x x x x x x x x 


e|-----|
B|-----|
G|-----|
D|-44--|
A|-44--|
D|-44--|


 /  slide up
 \  slide down
 h  hammer-on
 p  pull-off
 ~  vibrato
 +  harmonic
 x  Mute note
            
Submit corrections

comments powered by Disqus
↑ Back to top | 10 Years Tabs for Wasteland. Lyrics for acoustic guitar and electric guitar. 1 Tablatures and chords are parodies/interpretations of the original songs. You may use it for private study, scholarship, research or language learning purposes only