» » »

10 Years, Waking Up The Ghost Tabs (ver.1)

Artists:  A B C D E F G H I J K L M N O P Q R S T U V W X Y Z # 

Waking Up The Ghost Tabs (ver.1)

10 Years Tabs
 Rating:
4/5 (4 votes)
Waking Up The Ghost lessons Tabs too difficult? Try these video lessons and learn fast
1
                10 YEARS - Waking Up the Ghost
Drop C

It might be in drop c#, but i dont have a tuner to tune to sharps. If that's 
the case, put all the notes down a fret, opens are where they are.

h - hammer
p - pull off
. - palm mute
~ - hold
X - right hand mute

---INTRO---

D|------------|x4
A|----6---4~--|
F|------------|
C|------------|
G|--0---0-----|
C|------------|


---VERSE---

  GUITAR 1
D|------------------------------------------------|
A|----6---4~-----6---4~-----6---4~---4-6-6-0-4~---|
F|------------------------------------------------|
C|------------------------------------------------|
G|--0---0------0---0------0---0-------------------|
C|------------------------------------------------|

D|---------------------------------------------|
A|----6---4~-----6---4~------------------------|
F|------------------------------4~---------2~--|
C|----------------------------2----------------|
G|--0---0------0---0------2-4--------0-2-4-----|
C|---------------------------------------------|

  GUITAR 1
D|---------------------------------------------------------------------|
A|----6---4~-----6---4~-----6---4~---4-6-6-0-4~-----6---4~-----6---4~--|
F|---------------------------------------------------------------------|
C|---------------------------------------------------------------------|
G|--0---0------0---0------0---0-------------------0---0------0---0-----|
C|---------------------------------------------------------------------|
 |
 |GUITAR 2
D|---------------------------------|
A|---------------------------------|
F|---------------------------------|
C|--8-------4-------6-------8------|
G|--8-x24---4-x18---6-x6----8-x24--|
C|--8-------4-------6-------8------|
    .       .       .       .

---PRE-CHORUS---

D|---------------------------------------------|
A|---------------------------------------------|
F|---------------------------------------------|
C|--0-0-X-X-X-0-0-X-X-X-0-0-X-X-X-X-X-X-X-X-X--|
G|--0-0-X-X-X-0-0-X-X-X-0-0-X-X-X-X-X-X-X-X-X--|
C|--0-0-X-X-X-0-0-X-X-X-0-0-X-X-X-X-X-X-X-X-X--|

---CHORUS---

D|---------------------------------------------------------------------|
A|---------------------------------------------------------------------|
F|---------------------------------------------------------------------|
C|--8--8--8-10--10-11--11-0--0--0-4--4-6--6-8--8-10--10-11--11-10--10--|
G|--8--8--8-10--10-11--11-0--0--0-4--4-6--6-8--8-10--10-11--11-10--10--|
C|--8--8--8-10--10-11--11-0--0--0-4--4-6--6-8--8-10--10-11--11-10--10--|

D|-----------------------------------------------------------------|
A|-----------------------------------------------------------------|
F|-----------------------------------------------------------------|
C|--0-0-X-X-X-0-0-X-X-X---8--8--8-10--10-11--11-0--0--0-4--4-6--6--|
G|--0-0-X-X-X-0-0-X-X-X---8--8--8-10--10-11--11-0--0--0-4--4-6--6--|
C|--0-0-X-X-X-0-0-X-X-X---8--8--8-10--10-11--11-0--0--0-4--4-6--6--|

D|----------------------------------------------------------------------|
A|----------------------------------------------------------------------|
F|----------------------------------------------------------------------|
C|--8--8-10--10-11--11-10--10--0-0-X-X-X-0-0-X-X-X-0-0-X-X-X-0-0-X-X-X--|
G|--8--8-10--10-11--11-10--10--0-0-X-X-X-0-0-X-X-X-0-0-X-X-X-0-0-X-X-X--|
C|--8--8-10--10-11--11-10--10--0-0-X-X-X-0-0-X-X-X-0-0-X-X-X-0-0-X-X-X--|

---VERSE---

  GUITAR 1
D|------------------------------------------------|
A|----6---4~-----6---4~-----6---4~---4-6-6-0-4~---|
F|------------------------------------------------|
C|------------------------------------------------|
G|--0---0------0---0------0---0-------------------|
C|------------------------------------------------|

D|---------------------------------------------|
A|----6---4~-----6---4~------------------------|
F|------------------------------4~---------2~--|
C|----------------------------2----------------|
G|--0---0------0---0------2-4--------0-2-4-----|
C|---------------------------------------------|

  GUITAR 1
D|---------------------------------------------------------------------|
A|----6---4~-----6---4~-----6---4~---4-6-6-0-4~-----6---4~-----6---4~--|
F|---------------------------------------------------------------------|
C|---------------------------------------------------------------------|
G|--0---0------0---0------0---0-------------------0---0------0---0-----|
C|---------------------------------------------------------------------|
 |
 |GUITAR 2
D|---------------------------------|
A|---------------------------------|
F|---------------------------------|
C|--8-------4-------6-------8------|
G|--8-x24---4-x18---6-x6----8-x24--|
C|--8-------4-------6-------8------|
    .       .       .       .

---PRE-CHORUS---

D|---------------------------------------------|
A|---------------------------------------------|
F|---------------------------------------------|
C|--0-0-X-X-X-0-0-X-X-X-0-0-X-X-X-X-X-X-X-X-X--|
G|--0-0-X-X-X-0-0-X-X-X-0-0-X-X-X-X-X-X-X-X-X--|
C|--0-0-X-X-X-0-0-X-X-X-0-0-X-X-X-X-X-X-X-X-X--|

---CHORUS---

D|---------------------------------------------------------------------|
A|---------------------------------------------------------------------|
F|---------------------------------------------------------------------|
C|--8--8--8-10--10-11--11-0--0--0-4--4-6--6-8--8-10--10-11--11-10--10--|
G|--8--8--8-10--10-11--11-0--0--0-4--4-6--6-8--8-10--10-11--11-10--10--|
C|--8--8--8-10--10-11--11-0--0--0-4--4-6--6-8--8-10--10-11--11-10--10--|

D|-----------------------------------------------------------------|
A|-----------------------------------------------------------------|
F|-----------------------------------------------------------------|
C|--0-0-X-X-X-0-0-X-X-X---8--8--8-10--10-11--11-0--0--0-4--4-6--6--|
G|--0-0-X-X-X-0-0-X-X-X---8--8--8-10--10-11--11-0--0--0-4--4-6--6--|
C|--0-0-X-X-X-0-0-X-X-X---8--8--8-10--10-11--11-0--0--0-4--4-6--6--|

D|--------------------------------------------------|
A|--------------------------------------------------|
F|--------------------------------------------------|
C|--8--8-10--10-11--11-10--10--0-0-X-X-X-0-0-X-X-X--|
G|--8--8-10--10-11--11-10--10--0-0-X-X-X-0-0-X-X-X--|
C|--8--8-10--10-11--11-10--10--0-0-X-X-X-0-0-X-X-X--|

---BRIDGE---

D|---------------------------------------------------------------------|
A|---------------------------------------------------------------------|
F|---------------------------------------------------------------------|
C|--8--8--8-10--10-11--11-0--0--0-4--4-6--6-8--8-10--10-11--11-10--10--|
G|--8--8--8-10--10-11--11-0--0--0-4--4-6--6-8--8-10--10-11--11-10--10--|
C|--8--8--8-10--10-11--11-0--0--0-4--4-6--6-8--8-10--10-11--11-10--10--|

D|-----------------------------------------------------------------|
A|-----------------------------------------------------------------|
F|-----------------------------------------------------------------|
C|--0-0-X-X-X-0-0-X-X-X---8--8--8-10--10-11--11-0--0--0-4--4-6--6--|
G|--0-0-X-X-X-0-0-X-X-X---8--8--8-10--10-11--11-0--0--0-4--4-6--6--|
C|--0-0-X-X-X-0-0-X-X-X---8--8--8-10--10-11--11-0--0--0-4--4-6--6--|

D|-----------------------------|
A|-----------------------------|
F|-----------------------------|
C|--8--8-10--10-11--11-10--10--|
G|--8--8-10--10-11--11-10--10--|
C|--8--8-10--10-11--11-10--10--|

---SOLO---
repeat x2

  GUITAR 1 (wah)
D|-------------------------------------------------------------------------|
A|-------------------------------------------------------------------------|
F|-------------------------------------------------------------------------|
C|-------------------------------------------------------------------------|
G|--6p4h6-6--8p6h8-8--10p8h10-10--12p10h12-12--6p4h6-6--8p6h8-8--8p6-------|
C|-------------------------------------------------------------------8x12--|
 |
 |GUITAR 2
D|---------------------------------------------------------------|
A|---------------------------------------------------------------|
F|---------------------------------------------------------------|
C|--0-0---0-0---0-0---0-0---0-0---0-0---4-4-4-4-4-4-6-6-6-6-6-6--|
G|--0-0---0-0---0-0---0-0---0-0---0-0---4-4-4-4-4-4-6-6-6-6-6-6--|
C|--0-0---0-0---0-0---0-0---0-0---0-0---4-4-4-4-4-4-6-6-6-6-6-6--|

---INTERLUDE---

D|---------------------------------------------------|
A|---------------------------------------------------|
F|---------------------------------------------------|
C|-------8---------10-------11------0-------4-----6--|
G|-----8---8----10-------11-------0---0---4-----6----|
C|--8--------10-------11-------0--------4-----6------|

D|---------------------------------------|
A|---------------------------------------|
F|---------------------------------------|
C|------8-------10-------11-------10-----|
G|----8------10-------11-------10--------|
C|--8-----10-------11-------10-------0~--|

---CHORUS---

D|---------------------------------------------------------------------|
A|---------------------------------------------------------------------|
F|---------------------------------------------------------------------|
C|--8--8--8-10--10-11--11-0--0--0-4--4-6--6-8--8-10--10-11--11-10--10--|
G|--8--8--8-10--10-11--11-0--0--0-4--4-6--6-8--8-10--10-11--11-10--10--|
C|--8--8--8-10--10-11--11-0--0--0-4--4-6--6-8--8-10--10-11--11-10--10--|

D|-----------------------------------------------------------------|
A|-----------------------------------------------------------------|
F|-----------------------------------------------------------------|
C|--0-0-X-X-X-0-0-X-X-X---8--8--8-10--10-11--11-0--0--0-4--4-6--6--|
G|--0-0-X-X-X-0-0-X-X-X---8--8--8-10--10-11--11-0--0--0-4--4-6--6--|
C|--0-0-X-X-X-0-0-X-X-X---8--8--8-10--10-11--11-0--0--0-4--4-6--6--|

D|--------------------------------------------------|
A|--------------------------------------------------|
F|--------------------------------------------------|
C|--8--8-10--10-11--11-10--10--0-0-X-X-X-0-0-X-X-X--|
G|--8--8-10--10-11--11-10--10--0-0-X-X-X-0-0-X-X-X--|
C|--8--8-10--10-11--11-10--10--0-0-X-X-X-0-0-X-X-X--|

---BRIDGE---

D|---------------------------------------------------------------------|
A|---------------------------------------------------------------------|
F|---------------------------------------------------------------------|
C|--8--8--8-10--10-11--11-0--0--0-4--4-6--6-8--8-10--10-11--11-10--10--|
G|--8--8--8-10--10-11--11-0--0--0-4--4-6--6-8--8-10--10-11--11-10--10--|
C|--8--8--8-10--10-11--11-0--0--0-4--4-6--6-8--8-10--10-11--11-10--10--|

D|-----------------------------------------------------------------|
A|-----------------------------------------------------------------|
F|-----------------------------------------------------------------|
C|--0-0-X-X-X-0-0-X-X-X---8--8--8-10--10-11--11-0--0--0-4--4-6--6--|
G|--0-0-X-X-X-0-0-X-X-X---8--8--8-10--10-11--11-0--0--0-4--4-6--6--|
C|--0-0-X-X-X-0-0-X-X-X---8--8--8-10--10-11--11-0--0--0-4--4-6--6--|

D|-----------------------------|
A|-----------------------------|
F|-----------------------------|
C|--8--8-10--10-11--11-10--10--|
G|--8--8-10--10-11--11-10--10--|
C|--8--8-10--10-11--11-10--10--|

---OUTRO---

D|-------------------------------------------------|
A|-------------------------------------------------|
F|-------------------------------------------------|
C|--0-0---0-0---0-0---4-6-11-0-0---0-0---0-0--0-0--|
G|--0-0---0-0---0-0---4-6-11-0-0---0-0---0-0--0-0--|
C|--0-0---0-0---0-0---4-6-11-0-0---0-0---0-0--0-0--|
            
Submit corrections

comments powered by Disqus
↑ Back to top | 10 Years Tabs for Waking Up The Ghost. Lyrics for acoustic guitar and electric guitar. 1 Tablatures and chords are parodies/interpretations of the original songs. You may use it for private study, scholarship, research or language learning purposes only