>
 >
So Long Goodbye 5

So Long Goodbye 5 Guitar Tabs

10 Years - So Long Goodbye 5 chords, tabs, tablatures, lyrics

Guitar lessons | Add/correct | Request | Top 50 tabs Artists:  A B C D E F G H I J K L M N O P Q R S T U V W X Y Z 0-9

So Long Goodbye 5 Guitar Tabs – 10 Years

CD, Sheet music, Poster

Do you like So Long Goodbye 5? Share with your friends now
ChordsTabs
Tuning: Half-Step Down

| U   up-stroke
| D   down-stroke
| \   slide down
| ()  ghost note
| x   rake/mute
| h   hammer-on
| p   pull-off
| ~   let ring

All guitars tuned Eb Ab Db Bb Gb eb
 {Gtr 1 - acoustic

Really great song for acoustic, you can really have a lot of fun with it. Rhythm
not posted for the chorus.

[Intro Riff]
eb|--------------------------------------|
Bb|-----------------------------------1--|
Gb|---------5-------------4-----4-x-x-2--|
Db|----7------7(\5)---5-----5-5-5-x-x-2--|
Ab|--0----0---------3---3---5-5-5-x-x-0--|
Eb|-------------------------3-3-3--------|
                            U D D D U D

eb|--------------------------------------0--|
Bb|--------------------------------------1--|
Gb|---------5-------------4----------4-0-2--|
Db|----7------7(\5)---5------5-5-----5---2--|
Ab|--0----0---------3---3----5-5---5-5---0--|
Eb|------------------------------3---3------|
                             D U     U   D
                                    [*]
(Abruptly mute this with your palm right after playing it)


Play the first part of the Intro Riff for the first verse.


[Pre-Chorus]
eb|----------0-0-0-0----------0-0-0-0-0-0-0-0--|
Bb|--3-3-x-x-1-1-1-1--3-3-x-x-1-1-1-1-1-1-1-1--|
Gb|--4-4-x-x-2-2-2-2--4-4-x-x-2-2-2-2-2-2-2-2--|
Db|--5-5-x-x-2-2-2-2--5-5-x-x-2-2-2-2-2-2-2-2--|
Ab|--5-5-x-x-0-0-0-0--5-5-x-x-0-0-0-0-0-0-0-0--|
Eb|--3-3-x-x----------3-3-x-x------------------|


[Chorus]
     So long, this is goodbye..  May we meet again in another life
eb|--3--3----------3------0------0------------3--------3------0-----------|
Bb|--3--3----------3------1------1------------3--------3------1--0h1-0----|
Gb|--0--0----------0------2------0------------0--------0------2--2---2-0--|
Db|--2--0----------0------2------2------------0--------0------2--2--------|
Ab|--3--2----------2------0------3------------2--------2------0--0--------|
Eb|-----3----------3--------------------------3--------3------------------|

Like strangers, passing by..        May we see clearly in a different light
eb|-----3-3-----3-------0--0--------0----------3------------3---------0--|
Bb|-----3-3-----3-------1--0h1-1-1--1----------3------------3---------1--|
Gb|-----0-0-----0-------2--2---2-2--0----------0------------0---------2--|
Db|-----2-0-----0-------2--2---2-2--2----------0------------0---------2--|
Ab|-----3-2-----2-------0--0--------3----------2------------2---------0--|
Eb|-------3-----3------------------------------3------------3------------|

Play the Intro Riff once all the way through here.


[Verse 2] Play the first half of the Intro Riff until you reach this:
eb|---------------------------0--|
Bb|------5---3---3------------1--|
Gb|----5---5---4--------4-x-x-2--|
Db|-----------------5-5-5-x-x-2--|
Ab|--0--------------5-5-5-x-x-0--|
Eb|-----------------3-3-3--------|
                    U D D D U D

Then go into the Pre-Chorus, then the Chorus.


[Bridge] Played underneath the piano solo.
eb|-----0-0-----0-0-0-----0-0-0------------|
Bb|-----0-0-----0-0-0-----0-0-0-0-0-0-0-0--|
Gb|-----9-9-----7-7-7-----x-x-x-5-4-4-5-4--|
Db|-----7-7-----9-9-9--5--5-5-5-5-5-5-5-5--|
Ab|--0------10---------3--3-3-3-3-3-3-3-3--|
Eb|----------------------------------------|

eb|-----0-0-----0-0-0--0~--0-0-0-0-0-0-0-0--|
Bb|-----0-0-----0-0-0--0~--0-0-0-0-0-0-0-0--|
Gb|-----9-9-----7-7-7--4~--x-x-x-x-x-x-5-4--|
Db|-----7-7-----9-9-9--5~--5-5-5-5-5-5-5-5--|
Ab|--0------10---------3~--3-3-3-3-3-3-3-3--|
Eb|-----------------------------------------|

eb|-----0-0-----0-0-0-----0-0-0-0-0----------|
Bb|-----0-0-----0-0-0-----0-0-0-0-0-0---0-0--|
Gb|-----9-9-----7-7-7-----x-x-x-x-x-5p4-4-5--|
Db|-----7-7-----9-9-9--5--5-5-5-5-5-5---5-5--|
Ab|--0------10---------3--3-3-3-3-3-3---3-3--|
Eb|------------------------------------------|

eb|-----0-0-----0-0-0-----0-0-0-0-0-0-0-0--|
Bb|-----0-0-----0-0-0--0--0-0-0-0-0-0-0-0--|
Gb|-----9-9-----7-7-7--4--x-x-x-x-5-4-4-4--|
Db|-----7-7-----9-9-9--5--5-5-5-5-5-5-5-5--|
Ab|--0------10---------3--3-3-3-3-3-3-3-3--|
Eb|----------------------------------------|

The end of the bridge alternates between (3554--) and (-0221-), basically just a toned 
down Pre-Chorus.


[Last Chorus]
     So long, this is goodbye..  May we meet again in another life
eb|--3--3----------3------0------0------------3--------3------0--0--0-0----|
Bb|--3--3----------3------1------1------------3--------3------1--5--3-1p0--|
Gb|--0--0----------0------2------0------------0--------0------2--0--0-0----|
Db|--2--0----------0------2------2------------0--------0------2------------|
Ab|--3--2----------2------0------3------------2--------2------0------------|
Eb|-----3----------3--------------------------3--------3-------------------|

Like strangers, passing by..          May we see clearly in a different light
eb|-----3-3-----3-------0-------------0----------3------------3---------0--|
Bb|-----3-3-----3-------1-1p0-0-1p0-0-1----------3------------3---------1--|
Gb|-----0-0-----0-------2-2-----2---2-0----------0------------0---------2--|
Db|-----2-0-----0-------2-------------2----------0------------0---------2--|
Ab|-----3-2-----2-------0-------------3----------2------------2---------0--|
Eb|-------3-----3--------------------------------3------------3------------|


[Outro]
eb|--------------------------------------0----0--|
Bb|--------------------------------------1----1--|
Gb|---------5-------------4----------4-0-2--2-2--|
Db|----7------7(\5)---5------5-5-----5-0-2--2-2--|
Ab|--0----0---------3---3----5-5---5-5---0--0-0--|
Eb|------------------------------3---3-----------|
                             D U     U U D  D D

eb|---------------------------------0~--|
Bb|---------------------------------1~--|
Gb|---------5-------------4-----4---2~--|
Db|----7------7(\5)---5-----5-5-5---2~--|
Ab|--0----0---------3---3---5-5-5---0~--|
Eb|-------------------------3-3-3-------|
                            U D D

Done. God bless. :)





Comments


Popular 10 Years tabs & chords
Fix Me Bass Tabs
Through The Iris Bass Tabs
Autumn Effect 2 Tabs
Fade Into The Ocean Tabs
Now Is The Time Tabs
Proud Of You Tabs
Riptide Tabs
Shelter 3 Tabs
Sleeper Tabs
Through The Iris Ukulele


Song lyrics



↑ Back to top | Tablatures and chords are parodies/interpretations of the original songs. You may use it for private study, scholarship, research or language learning purposes only
© 2014 AZChords.com Contact us | Privacy policy | DMCA | Add/correct tabs | Request tabs | Top 50 tabs