» » »

10 Years, So Long Goodbye Chords (ver.3)

Artists:  A B C D E F G H I J K L M N O P Q R S T U V W X Y Z # 

So Long Goodbye Chords (ver.3)

10 Years Tabs
 Rating:
4/5 (4 votes)
So Long Goodbye lessons Tabs too difficult? Try these video lessons and learn fast
                "(2)
So Long Goodbye - 10 Years
Tuning: Half-Step Down (Eb Ab Db Gb Bb Eb)

Intro/Verse:
    Am      Cmaj7     G  Am
e|--------------------3--0--|
b|--------------------3--1--|
g|--------5--------4--0--2--|
d|----7--------5------0--2--|
a|--0---0----3---3----2--0--|
e|--------------------3-----|

Verse 1
      Am           Cmaj7       G           Am
Keep changing your mind like clouds in the sky
 Am                 Cmaj7   G               Am
Love me when you're high, leave me when you cry
Am Cmaj7    G        Am           Am            Cmaj7         G         Am
I  know it all takes time, like a river running dry when the sun's too bright

CHORUS
C    G          Am
So long this is goodbye
C            G        Am
May we meet again in another life
     C      G    Am 
Like strangers passing by
C           G             Am
May we see clearly in a different life

INTRO x2

Verse 2
Am           Cmaj7           G          Am
Keep dodging lights like a thief in the night
Am           Cmaj7      G            Am
The sun will rise and expose all our lies
   Am             Cmaj7             G       Am
e|----------------------------------3--------0--|
b|-----5---5-------3-----3----------3--------1--|
g|-------5---5-------4-----4--------0--------2--|(can also play verse riff)
d|----------------------------------0--------2--|
a|--0-------------------------------2--------0--|
e|----------------------------------3-----------|
   So why deny that you and I lead different lives?

Am               Cmaj7        G       Am
Rivers from your eyes can’t change my mind


Repeat Chorus


Piano Solo
(Instead of playing the piano, ad-lib with the verse riff or as you see fit.)

Pre-chorus:
   Am               Cmaj7         G       Am
So rivers from your eyes can't change my mind


Repeat Chorus


INTRO x2

----------------
"            
Submit corrections

comments powered by Disqus
↑ Back to top | 10 Years Chords for So Long Goodbye. Lyrics for acoustic guitar and electric guitar. Tablatures and chords are parodies/interpretations of the original songs. You may use it for private study, scholarship, research or language learning purposes only