>
 >
Sleeper

Sleeper Guitar Tabs

10 Years - Sleeper chords, tabs, tablatures, lyrics

Guitar lessons | Add/correct | Request | Top 50 tabs Artists:  A B C D E F G H I J K L M N O P Q R S T U V W X Y Z 0-9

Sleeper Guitar Tabs – 10 Years

CD, Sheet music, Poster

Do you like Sleeper? Share with your friends now
Tabs
10 Years: Sleeper




Tuning: Drop C# (C#,G#,C#,F#,A#,D#)

Riff 1 (light distortion w/ some flanger)
D#|----0~----------------------|
A#|------------0~--------------|
F#|-5~-----------------5~------|
C#|---------5~------7~------7~-|
G#|-------------------------0~-|
C#|----------------------------|

Play Riff 1 x4

Riff 2 (light distortion w/ some flanger)
D#|-------------------------------------|
A#|---------------------3~--------------|
F#|-9~--9h10-7-7h9~--------4~-----4~----|
C#|-7~--7----7-7~-------------5~-----5~-|
G#|-0~----------------------------------|
C#|-------------------------------------|

Play Riff 2 x2

Riff 3 - Guitar 1 (light distortion w/ some flanger)
D#|----------------------------|
A#|----------------------------|
F#|-12~--11~--10~--7~----------|
C#|-10~--9~---8~---5~----------|
G#|----------------------------|
C#|----------------------------|

Riff 3 - Guitar 2 (distortion)
D#|----------------------------|
A#|----------------------------|
F#|----------------------------|
C#|----------------------------|
G#|----------------5-5-5-5-5-0-|
C#|----------------5-5-5-5-5-0-|
                   * * * * * *

Riff 4 - Both Guitars
D#|-----------------------------------------------|
A#|-----------------------------------------------|
F#|-----------------------------------------------|
C#|-------------------------7--7-7-7-7-7--7-7-7-7-|
G#|-------------------------7--7-7-7-7-7--7-7-7-7-|
C#|-5/7-0-5/7-0-8\7-0-8\7-0-7--7-7-7-7-7--7-7-7-7-|

Play Riff 4 x4 then:
D#|----------------|
A#|----------------|
F#|----------------|
C#|-3-3-3-/-8-8-8\-|
G#|-3-3-3-/-8-8-8\-|
C#|-3-3-3-/-8-8-8\-|

Play Riff 1 x2
Play Riff 2 x2
Play Riff 3 x1
Play Riff 4 x4

Riff 5 - Guitar 1
D#|-------------------------------------------|
A#|-------------------------------------------|
F#|-------------------------------------------|
C#|-------------------------------------------|
G#|-------------------------------------------|
C#|-7-7-7-7-7-7-8-8-8-8---7-7-7-7-8-8-8-8-8-8-|

Riff 5 - Guitar 2
D#|-------------------------------------------|
A#|-------------------------------------------|
F#|-------------------------------------------|
C#|-7-7-7-7-7-7-8-8-8-8---7-7-7-7-8-8-8-8-8-8-|
G#|-------------------------------------------|
C#|-------------------------------------------|

Play Riff 5 x4

Riff 6 - Both Guitars
D#|-------------------------------------|
A#|-------------------------------------|
F#|-------4-4---7-7---------------------|
C#|-2-2---4-4---7-7---7-7---10--10-10-0-|
G#|-2-2---2-2---5-5---7-7---10--10-10-0-|
C#|-2-2-0-----0-0-0-0-7-7-0-10--10-10-0-|

D#|---------------------------------------|
A#|---------------------------------------|
F#|-------4-4---7-7-----------------------|
C#|-2-2---4-4---7-7---7-7---10--10-10-0-0-|
G#|-2-2---2-2---5-5---7-7---10--10-10-0-0-|
C#|-2-2-0-----0-0-0-0-7-7-0-10--10-10-0-0-|

Play Riff 6 x2

Riff 7 - Guitar 1
D#|----------------------------------------------------|
A#|----------------------------------------------------|
F#|-12-12-12-12---12-12-12-12---12-12-12-12---11-11-11-|
C#|-x--x--x--x----x--x--x--x----x--x--x--x----x--x--x--|
G#|-10-10-10-10---10-10-10-10---10-10-10-10---9--9--9--|
C#|----------------------------------------------------|

Play above twice then:
D#|----------------------------------------------------|
A#|----------------------------------------------------|
F#|-16-16-16-16---16-16-16-16---16-16-16-16---14-14-14-|
C#|-x--x--x--x----x--x--x--x----x--x--x--x----x--x--x--|
G#|-14-14-14-14---14-14-14-14---14-14-14-14---12-12-12-|
C#|----------------------------------------------------|

D#|-----------------------------------------------|
A#|-----------------------------------------------|
F#|-19-19-19-19---19-19-19-19---19-19-19-19---11~-|
C#|-x--x--x--x----x--x--x--x----x--x--x--x----x---|
G#|-17-17-17-17---17-17-17-17---17-17-17-17---9~--|
C#|-----------------------------------------------|

Riff 7 - Guitar 2
D#|-------------------------------------|
A#|-------------------------------------|
F#|-------------------------------------|
C#|-5-5-5-5---5-5-5-5---5-5-5-5---0-0-0-|
G#|-x-x-x-x---x-x-x-x---x-x-x-x---0-0-0-|
C#|-5-5-5-5---5-5-5-5---5-5-5-5---0-0-0-|

Play above three times then:
D#|----------------------------------|
A#|----------------------------------|
F#|----------------------------------|
C#|-5-5-5-5---5-5-5-5---5-5-5-5---4~-|
G#|-x-x-x-x---x-x-x-x---x-x-x-x---x--|
C#|-5-5-5-5---5-5-5-5---5-5-5-5---4~-|

Play Riff 3 x1
Play Riff 4 x8

Ending
D#|----------------|
A#|----------------|
F#|----------------|
C#|-3-3-3-/-8-8-8\-|
G#|-3-3-3-/-8-8-8\-|
C#|-3-3-3-/-8-8-8\-|

Enjoy!





Comments


Popular 10 Years tabs & chords
Wasteland 2 Bass Tabs
Actions And Motives 1 Tabs
All Your Lies Tabs
Angelic Tabs
Don't Fight It Tabs
Frailty Tabs
Knives Tabs
Russian Roulette 2 Tabs
So Long Goodbye 4 Tabs
When Will You Breathe 1 Tabs


Song lyrics



↑ Back to top | Tablatures and chords are parodies/interpretations of the original songs. You may use it for private study, scholarship, research or language learning purposes only
© 2014 AZChords.com Contact us | Privacy policy | DMCA | Add/correct tabs | Request tabs | Top 50 tabs