» » »

10 Years, Seasons To Cycles Tabs (ver.4)

Artists:  A B C D E F G H I J K L M N O P Q R S T U V W X Y Z # 

Seasons To Cycles Tabs (ver.4)

10 Years Tabs
 Rating:
3.8/5 (5 votes)
Seasons To Cycles lessons Tabs too difficult? Try these video lessons and learn fast
1
                ----------------------------------------------------------------------------
                       Seasons to cycles - 10 years
----------------------------------------------------------------------------

Tuning:Drop D

Ilooked at all the tabs on this web site for this song and none were right so I made my 
which is 100% correct


       Verse/intro
e|-------------------------------------------------------------------------|
B|-------------------------------------------------------------------------|
G|-------------------------------------------------------------------------|
D|-----6-----7----4--------------------------------------------------------|
A|---2-----5----0-----repeat-this many times through the verses------------|
D|-2-----5----0------------------------------------------------------------|


              Chorus
e|-------------------------------------------------------------------------|
B|-------------------------------------------------------------------------|
G|-------------------------------------------------------------------------|
D|--2h6-6-6-6-6--5h7-7-7-7-7-7--4-4-4h5-5-5-5p4-4-4-4h5p4------------------|
A|--2---2-2-2-2--5---5-5-5-5-5--0-0-0-0-0-0-0-0-0-0-0-0-0------------------|
D|--2---2-2-2-2--5---5-5-5-5-5--0-0-0-0-0-0-0-0-0-0-0-0-0------------------|

         Strum up and down and just figure out the strum pattern

e|-------------------------------------------------------------------------|
B|-------------------------------------------------------------------------|
G|-------------------------------------------------------------------------|
D|-----6-----7----4---------6----7-----4--4h5/0----------------------------|
A|---2-----5----0---------2----5-----0-------------------------------------|
D|-2-----5----0---------2----5-----0---------------------------------------|
throw that hammer in every once in a while just listen to the song to figure it out

Interlude(same as chorus)

Then finish up with a chorus followed by the intro

| /  slide up
| h  hammer-on
| p  pull-off
============================================================================
            
Submit corrections

comments powered by Disqus
↑ Back to top | 10 Years Tabs for Seasons To Cycles. Lyrics for acoustic guitar and electric guitar. 1 Tablatures and chords are parodies/interpretations of the original songs. You may use it for private study, scholarship, research or language learning purposes only