» » »

10 Years, Prey Tabs (ver.3)

Artists:  A B C D E F G H I J K L M N O P Q R S T U V W X Y Z # 

Prey Tabs (ver.3)

10 Years Tabs
Rating:
4/5 (2 votes)
Prey lessons Tabs too difficult? Try these video lessons and learn fast
                intro/chorus
e(--------------------------)
b(--------------------------)
g(--------------------------)
d(--6-666-66-2-222-22-4-444-)
a(--6-666-66-2-222-22-4-444-)
D(--6-666-66-2-222-22-4-444-)

lead
e(--------------------------------------77-777-77-----)
b(--99-999-99-77-777-77-444-5-99-999-99-----------7-5-)
g(----------------------------------------------------)
d(----------------------------------------------------)
a(----------------------------------------------------)
D(----------------------------------------------------)

verse                                              (x8)
e(----------------------------------------------)(------)
b(-----2-----2----------------------------------)(------)
g(-----1-----1-446-446-446-446-446-8p66-446-446-)(--446-)
d(--/6---6-6------------------------------------)(------)
a(----------------------------------------------)(------)
D(----------------------------------------------)(------)

bridge/outro           last note
e(------------------)(----)
b(------------------)(----)
g(------------------)(----)
d(--77-x66-77-x66-7-)(----)
a(--77-x66-77-x66-7-)(--4-)
D(--77-x66-77-x66-7-)(----)
            

comments powered by Disqus
↑ Back to top | 10 Years Tabs for Prey. Lyrics for acoustic guitar and electric guitar. Tablatures and chords are parodies/interpretations of the original songs. You may use it for private study, scholarship, research or language learning purposes only