» » »

10 Years, Just Can't Win Tabs (ver.2)

Artists:  A B C D E F G H I J K L M N O P Q R S T U V W X Y Z # 

Just Can't Win Tabs (ver.2)

10 Years Tabs
 Rating:
4/5 (4 votes)
Just Can't Win lessons Tabs too difficult? Try these video lessons and learn fast
1
                (Intro)
10 Years
Just Can't Win
Tuning Db Ab Db Gb Bb Eb

Legend
h-hammer on

Intro Guitar 1: 00:00 (Silent, except for "Russian Roulette" being
played in the background, drum sticks and a guitar being picked up)
Eb|------------------------------------------------------------------|
Bb|------------------------------------------------------------------|
Gb|------------------------------------------------------------------|
Db|------------------------------------------------------------------|
Ab|------------------------------------------------------------------|
Db|------------------------------------------------------------------|

Intro Guitar 1: 00:13 (Distorted)
Eb|------------------------------------------------------------------|
Bb|------------------------------------------------------------------|
Gb|------------------------------------------------------------------|
Db|--10--10--10--10--10--10--10--10----8--8--8--8--8--8--8--8--------|
Ab|--10--10--10--10--10--10--10--10----8--8--8--8--8--8--8--8--------|
Db|--10--10--10--10--10--10--10--10----8--8--8--8--8--8--8--8--------|

Intro Guitar 1: 00:16
Eb|------------------------------------------------------------------|
Bb|------------------------------------------------------------------|
Gb|---------------------------------8-8-8-8-8-8-8-8-7-7-7-7-7-7-7-7--|
Db|---8h10--10--10--10--10--10--10--6-6-6-6-6-6-6-6-6-6-6-6-6-6-6-6--|
Ab|---8h10--10--10--10--10--10--10--6-6-6-6-6-6-6-6-6-6-6-6-6-6-6-6--|
Db|---8h10--10--10--10--10--10--10--6-6-6-6-6-6-6-6-6-6-6-6-6-6-6-6--|

Intro Guitar 1: 00:22
Eb|------------------------------------------------------------------|
Bb|---------------------------------------------------3--------------|
Gb|---------------------------------------------------3--------------|
Db|--3--3----3--3--3---3---1--1----1--1--1---1--------1--------------|
Ab|--3--3----3--3--3---3---1--1----1--1--1---1--------3--------------|
Db|--3--3----3--3--3---3---1--1----1--1--1---1-----------------------|

Right now it's 12:34am and I don't feel like doing the rest right now, I
really like this song and I hope to have all of it up before the weekend.
            
Submit corrections

comments powered by Disqus
↑ Back to top | 10 Years Tabs for Just Can't Win. Lyrics for acoustic guitar and electric guitar. 1 Tablatures and chords are parodies/interpretations of the original songs. You may use it for private study, scholarship, research or language learning purposes only