>
 >
Just Can't Win

Just Can't Win Guitar Tabs

10 Years - Just Can't Win chords, tabs, tablatures, lyrics

Guitar lessons | Add/correct | Request | Top 50 tabs Artists:  A B C D E F G H I J K L M N O P Q R S T U V W X Y Z 0-9

Just Can't Win Guitar Tabs – 10 Years

CD, Sheet music, Poster

Do you like Just Can't Win? Share with your friends now
Bass TabsTabs
10 Years                    
Tuning Db Ab Db Gb Bb Eb

Legend
h-hammer on                /-slide up                \-slide down

Intro Guitar 1: 00:00 (Silent, except for "Russian Roulette" being
played in the background, drum sticks and a guitar being picked up)
Eb|------------------------------------------------------------------|
Bb|------------------------------------------------------------------|
Gb|------------------------------------------------------------------|
Db|------------------------------------------------------------------|
Ab|------------------------------------------------------------------|
Db|------------------------------------------------------------------|

Intro Guitars 1 & 2 (Distorted): 00:13
Eb|------------------------------------------------------------------|
Bb|------------------------------------------------------------------|
Gb|------------------------------------------------------------------|
Db|--10--10--10--10--10--10--10--10----8--8--8--8--8--8--8--8--------|
Ab|--10--10--10--10--10--10--10--10----8--8--8--8--8--8--8--8--------|
Db|--10--10--10--10--10--10--10--10----8--8--8--8--8--8--8--8--------|

Intro Guitars 1 & 2: 00:16
Eb|------------------------------------------------------------------|
Bb|------------------------------------------------------------------|
Gb|---------------------------------8-8-8-8-8-8-8-8-7-7-7-7-7-7-7-7--|
Db|---8h10--10--10--10--10--10--10--6-6-6-6-6-6-6-6-6-6-6-6-6-6-6-6--|
Ab|---8h10--10--10--10--10--10--10--6-6-6-6-6-6-6-6-6-6-6-6-6-6-6-6--|
Db|---8h10--10--10--10--10--10--10--6-6-6-6-6-6-6-6-6-6-6-6-6-6-6-6--|

Intro Guitars 1 & 2: 00:22
Eb|----------------------------------------------------------3-------|
Bb|----------------------------------------------------------3-------|
Gb|----------------------------------------------------------3-------|
Db|--3---3----3---3---3---3----1---1----1---1---1---1--------1-------|
Ab|--3---3----3---3---3---3----1---1----1---1---1---1----------------|
Db|--3---3----3---3---3---3----1---1----1---1---1---1----------------|
                                             Guitar 1 only --^

Verse 1 Guitar 2 (clean): 00:27 / 01:37 / 00:47 / 00:57
Eb|------------------------------------------------------------------|
Bb|-----------3-----3---------------------3------3-------------------|
Gb|--------3---------------------------3-----------------------------|
Db|-----1---------------------------1--------------------------------|
Ab|--3---------------------------1-----------------------------------|
Db|------------------------------------------------------------------|

Verse 1 Guitar 1 (low distortion & palm muted): 00:47 / 00:56
Eb|------------------------------------------------------------------|
Bb|------------------------------------------------------------------|
Gb|------------------------------------------------------------------|
Db|-5-5-5-5-5h6-6-6--8-8-8-6-6-5-5---5-5-5-5-5h6--6-6--8-8-8-6-6-5-5-|
Ab|------------------------------------------------------------------|
Db|------------------------------------------------------------------|

Verse 1 Guitar 1: 00:51 / 01:01
Eb|------------------------------------------------------------------|
Bb|------------------------------------------------------------------|
Gb|-------------------------------------------------7-7-----7-7------|
Db|-5-5-5-5-5h6-6-6--8-8-8-6-6-5-5---5-5-5-5-5h6--8-----8-8-----8-8--|
Ab|------------------------------------------------------------------|
Db|------------------------------------------------------------------|
         Gradually let off palm mute --^

Chorus Guitars 1 & 2 (Distorted): 01:07
Eb|------------------------------------------------------------------|
Bb|------------------------------------------------------------------|
Gb|------------------------------------------------------------------|
Db|--10--10--10--10--10--10--10--10----8--8--8--8--8--8--8--8--------|
Ab|--10--10--10--10--10--10--10--10----8--8--8--8--8--8--8--8--------|
Db|--10--10--10--10--10--10--10--10----8--8--8--8--8--8--8--8--------|

Chorus Guitars 1 & 2: 01:10
Eb|------------------------------------------------------------------|
Bb|------------------------------------------------------------------|
Gb|---------------------------------8-8-8-8-8-8-8-8-7-7-7-7-7-7-7-7--|
Db|---8h10--10--10--10--10--10--10--6-6-6-6-6-6-6-6-6-6-6-6-6-6-6-6--|
Ab|---8h10--10--10--10--10--10--10--6-6-6-6-6-6-6-6-6-6-6-6-6-6-6-6--|
Db|---8h10--10--10--10--10--10--10--6-6-6-6-6-6-6-6-6-6-6-6-6-6-6-6--|

Chorus Guitars 1 & 2: 01:14
Eb|------------------------------------------------------------------|
Bb|------------------------------------------------------------------|
Gb|------------------------------------------------------------------|
Db|--3---3----3---3---3---3----1---1----1---1---1---1----------------|
Ab|--3---3----3---3---3---3----1---1----1---1---1---1----------------|
Db|--3---3----3---3---3---3----1---1----1---1---1---1----------------|

Chorus Guitars 1 & 2 (Distorted): 01:16
Eb|------------------------------------------------------------------|
Bb|------------------------------------------------------------------|
Gb|------------------------------------------------------------------|
Db|--10--10--10--10--10--10--10--10----8--8--8--8--8--8--8--8--------|
Ab|--10--10--10--10--10--10--10--10----8--8--8--8--8--8--8--8--------|
Db|--10--10--10--10--10--10--10--10----8--8--8--8--8--8--8--8--------|

Chorus Guitars 1 & 2: 01:19
Eb|------------------------------------------------------------------|
Bb|------------------------------------------------------------------|
Gb|---------------------------------8-8-8-8-8-8-8-8-7-7-7-7-7-7-7-7--|
Db|---8h10--10--10--10--10--10--10--6-6-6-6-6-6-6-6-6-6-6-6-6-6-6-6--|
Ab|---8h10--10--10--10--10--10--10--6-6-6-6-6-6-6-6-6-6-6-6-6-6-6-6--|
Db|---8h10--10--10--10--10--10--10--6-6-6-6-6-6-6-6-6-6-6-6-6-6-6-6--|

Chorus Guitars 1 & 2: 01:23
Eb|----------------------------------------------------------3-------|
Bb|----------------------------------------------------------3-------|
Gb|----------------------------------------------------------3-------|
Db|--3---3----3---3---3---3----1---1----1---1---1---1--------1-------|
Ab|--3---3----3---3---3---3----1---1----1---1---1---1----------------|
Db|--3---3----3---3---3---3----1---1----1---1---1---1----------------|
                                             Guitar 1 only --^

Verse 2 Guitar 2 (clean): 01:26 / 01:37 / 01:48 / 01:58
Eb|------------------------------------------------------------------|
Bb|-----------3-----3---------------------3------3-------------------|
Gb|--------3---------------------------3-----------------------------|
Db|-----1---------------------------1--------------------------------|
Ab|--3---------------------------1-----------------------------------|
Db|------------------------------------------------------------------|

Verse 2 Guitar 1 (low distortion & palm muted): 01:49 / 01:59
Eb|------------------------------------------------------------------|
Bb|------------------------------------------------------------------|
Gb|------------------------------------------------------------------|
Db|-5-5-5-5-5h6-6-6--8-8-8-6-6-5-5---5-5-5-5-5h6--6-6--8-8-8-6-6-5-5-|
Ab|------------------------------------------------------------------|
Db|------------------------------------------------------------------|

Verse 2 Guitar 1: 01:54 / 02:04
Eb|------------------------------------------------------------------|
Bb|------------------------------------------------------------------|
Gb|-------------------------------------------------7-7-----7-7------|
Db|-5-5-5-5-5h6-6-6--8-8-8-6-6-5-5---5-5-5-5-5h6--8-----8-8-----8-8--|
Ab|------------------------------------------------------------------|
Db|------------------------------------------------------------------|
         Gradually let off palm mute --^

Chorus Guitars 1 & 2 (Distorted): 02:09 / 02:18
Eb|------------------------------------------------------------------|
Bb|------------------------------------------------------------------|
Gb|------------------------------------------------------------------|
Db|--10--10--10--10--10--10--10--10----8--8--8--8--8--8--8--8--------|
Ab|--10--10--10--10--10--10--10--10----8--8--8--8--8--8--8--8--------|
Db|--10--10--10--10--10--10--10--10----8--8--8--8--8--8--8--8--------|

Chorus Guitars 1 & 2: 02:11 / 02:20
Eb|------------------------------------------------------------------|
Bb|------------------------------------------------------------------|
Gb|---------------------------------8-8-8-8-8-8-8-8-7-7-7-7-7-7-7-7--|
Db|---8h10--10--10--10--10--10--10--6-6-6-6-6-6-6-6-6-6-6-6-6-6-6-6--|
Ab|---8h10--10--10--10--10--10--10--6-6-6-6-6-6-6-6-6-6-6-6-6-6-6-6--|
Db|---8h10--10--10--10--10--10--10--6-6-6-6-6-6-6-6-6-6-6-6-6-6-6-6--|

Chorus Guitars 1 & 2: 01:14 / 02:24
Eb|------------------------------------------------------------------|
Bb|------------------------------------------------------------------|
Gb|------------------------------------------------------------------|
Db|--3---3----3---3---3---3----1---1----1---1---1---1----------------|
Ab|--3---3----3---3---3---3----1---1----1---1---1---1----------------|
Db|--3---3----3---3---3---3----1---1----1---1---1---1----------------|

Bridge Guitar 1 (Distorted): 02:27 / 02:35
Eb|------------------------------------------------------------------|
Bb|-----------3-----------------3--------------3---------------------|
Gb|--------3-----------------3--------------------3------------------|
Db|-----1-----------------1-----------------5------------------------|
Ab|--3-----------------1-----------------3---------------------------|
Db|------------------------------------------------------------------|

Bridge Guitar 2 (clean): 02:27 / 02:35
Eb|-----------------------------6------------------------------------|
Bb|--------------------------------8----\----------------------------|
Gb|--3--/-5------------3--/-5----------------------------------------|
Db|------------------------------------------------------------------|
Ab|------------------------------------------------------------------|
Db|------------------------------------------------------------------|

Bridge Guitar 2: 02:43
Eb|------------------------------------------------------------------|
Bb|-----------3-----------------3------------------------------------|
Gb|--------3-----------------3---------------------------------------|
Db|-----1-----------------1------------------------------------------|
Ab|--3-----------------1---------------------------------------------|
Db|------------------------------------------------------------------|

Chorus 2 Guitar 1 (Distorted): 02:48
Eb|------------------------------------------------------------------|
Bb|------------------------------------------------------------------|
Gb|--12--12--12--12--12--12--12--12----10-10-10-10-10-10-10-10-------|
Db|--10--10--10--10--10--10--10--10----8--8--8--8--8--8--8--8--------|
Ab|--10--10--10--10--10--10--10--10----8--8--8--8--8--8--8--8--------|
Db|--10--10--10--10--10--10--10--10----8--8--8--8--8--8--8--8--------|

Chorus 2 Guitar 2 (Distorted): 02:48
Eb|------------------------------------------------------------------|
Bb|------------------------------------------------------------------|
Gb|-------12--------------------------------10-----------------------|
Db|--13--------------------------------12----------------------------|
Ab|------------------------------------------------------------------|
Db|------------------------------------------------------------------|

Chorus 2 Guitar 1: 02:50
Eb|------------------------------------------------------------------|
Bb|------------------------------------------------------------------|
Gb|--10/12--12--12--12--12--12--12--8-8-8-8-8-8-8-8-7-7-7-7-7-7-7-7--|
Db|--8-/10--10--10--10--10--10--10--6-6-6-6-6-6-6-6-6-6-6-6-6-6-6-6--|
Ab|--8-/10--10--10--10--10--10--10--6-6-6-6-6-6-6-6-6-6-6-6-6-6-6-6--|
Db|--8-/10--10--10--10--10--10--10--6-6-6-6-6-6-6-6-6-6-6-6-6-6-6-6--|

Chorus 2 Guitar 2 (Distorted): 02:50
Eb|------------------------------------------------------------------|
Bb|------------------------------------------------------------------|
Gb|-------12------------------------13---12--------------------------|
Db|--13--------------------------------------------------------------|
Ab|------------------------------------------------------------------|
Db|------------------------------------------------------------------|

Chorus 2 Guitar 1: 02:54
Eb|------------------------------------------------------------------|
Bb|------------------------------------------------------------------|
Gb|------------------------------------------------------------------|
Db|--3---3----3---3---3---3----1---1----1---1---1---1----------------|
Ab|--3---3----3---3---3---3----1---1----1---1---1---1----------------|
Db|--3---3----3---3---3---3----1---1----1---1---1---1----------------|

Chorus 2 Guitar 2 (Distorted): 02:54
Eb|------------------------------------------------------------------|
Bb|--13---11---------------------------------------------------------|
Gb|-------------13---12----------------------------------------------|
Db|------------------------------------------------------------------|
Ab|------------------------------------------------------------------|
Db|------------------------------------------------------------------|

Chorus 2 Guitar 1 (Distorted): 02:57
Eb|------------------------------------------------------------------|
Bb|------------------------------------------------------------------|
Gb|--12--12--12--12--12--12--12--12----10-10-10-10-10-10-10-10-------|
Db|--10--10--10--10--10--10--10--10----8--8--8--8--8--8--8--8--------|
Ab|--10--10--10--10--10--10--10--10----8--8--8--8--8--8--8--8--------|
Db|--10--10--10--10--10--10--10--10----8--8--8--8--8--8--8--8--------|

Chorus 2 Guitar 2 (Distorted): 02:57
Eb|------------------------------------------------------------------|
Bb|------------------------------------------------------------------|
Gb|-------12--------------------------------10-----------------------|
Db|--13--------------------------------12----------------------------|
Ab|------------------------------------------------------------------|
Db|------------------------------------------------------------------|

Chorus 2 Guitar 1: 02:59
Eb|------------------------------------------------------------------|
Bb|------------------------------------------------------------------|
Gb|--10/12--12--12--12--12--12--12--8-8-8-8-8-8-8-8-7-7-7-7-7-7-7-7--|
Db|--8-/10--10--10--10--10--10--10--6-6-6-6-6-6-6-6-6-6-6-6-6-6-6-6--|
Ab|--8-/10--10--10--10--10--10--10--6-6-6-6-6-6-6-6-6-6-6-6-6-6-6-6--|
Db|--8-/10--10--10--10--10--10--10--6-6-6-6-6-6-6-6-6-6-6-6-6-6-6-6--|

Chorus 2 Guitar 2 (Distorted): 02:59
Eb|------------------------------------------------------------------|
Bb|-------11-------------------------13---11---------13---11---------|
Gb|--12--------------------------------------------------------------|
Db|------------------------------------------------------------------|
Ab|------------------------------------------------------------------|
Db|------------------------------------------------------------------|

Chorus 2 Guitar 1: 03:03
Eb|------------------------------------------------------------------|
Bb|------------------------------------------------------------------|
Gb|------------------------------------------------------------------|
Db|--3---3----3---3---3---3----1---1----1---1---1---1----------------|
Ab|--3---3----3---3---3---3----1---1----1---1---1---1----------------|
Db|--3---3----3---3---3---3----1---1----1---1---1---1----------------|

Chorus 2 Guitar 2 (Distorted): 03:03
Eb|------------------------------------------------------------------|
Bb|--13---15---------------------------------------------------------|
Gb|----------------------------15------------------------------------|
Db|------------------------------------------------------------------|
Ab|------------------------------------------------------------------|
Db|------------------------------------------------------------------|

Chorus 2 Guitar 1 (Distorted): 03:06
Eb|------------------------------------------------------------------|
Bb|------------------------------------------------------------------|
Gb|--12--12--12--12--12--12--12--12----10-10-10-10-10-10-10-10-------|
Db|--10--10--10--10--10--10--10--10----8--8--8--8--8--8--8--8--------|
Ab|--10--10--10--10--10--10--10--10----8--8--8--8--8--8--8--8--------|
Db|--10--10--10--10--10--10--10--10----8--8--8--8--8--8--8--8--------|

Chorus 2 Guitar 2 (Distorted): 03:06
Eb|------------------------------------------------------------------|
Bb|------------------------------------------------------------------|
Gb|-------12--------------------------------10-----------------------|
Db|--13--------------------------------12----------------------------|
Ab|------------------------------------------------------------------|
Db|------------------------------------------------------------------|

Chorus 2 Guitar 1: 03:08
Eb|------------------------------------------------------------------|
Bb|------------------------------------------------------------------|
Gb|--10/12--12--12--12--12--12--12--8-8-8-8-8-8-8-8-7-7-7-7-7-7-7-7--|
Db|--8-/10--10--10--10--10--10--10--6-6-6-6-6-6-6-6-6-6-6-6-6-6-6-6--|
Ab|--8-/10--10--10--10--10--10--10--6-6-6-6-6-6-6-6-6-6-6-6-6-6-6-6--|
Db|--8-/10--10--10--10--10--10--10--6-6-6-6-6-6-6-6-6-6-6-6-6-6-6-6--|

Chorus 2 Guitar 2 (Distorted): 03:08
Eb|------------------------------------------------------------------|
Bb|------------------------------------------------------------------|
Gb|-------12------------------------13---12--------------------------|
Db|--13--------------------------------------------------------------|
Ab|------------------------------------------------------------------|
Db|------------------------------------------------------------------|

Chorus 2 Guitar 1: 03:12
Eb|------------------------------------------------------------------|
Bb|------------------------------------------------------------------|
Gb|------------------------------------------------------------------|
Db|--3---3----3---3---3---3----1---1----1---1---1---1----------------|
Ab|--3---3----3---3---3---3----1---1----1---1---1---1----------------|
Db|--3---3----3---3---3---3----1---1----1---1---1---1----------------|

Chorus 2 Guitar 2 (Distorted): 03:12
Eb|------------------------------------------------------------------|
Bb|--13---11---------------------------------------------------------|
Gb|-------------13---12----------------------------------------------|
Db|------------------------------------------------------------------|
Ab|------------------------------------------------------------------|
Db|------------------------------------------------------------------|

Chorus 2 Guitar 1 (Distorted): 03:16
Eb|------------------------------------------------------------------|
Bb|------------------------------------------------------------------|
Gb|--12--12--12--12--12--12--12--12----10-10-10-10-10-10-10-10-------|
Db|--10--10--10--10--10--10--10--10----8--8--8--8--8--8--8--8--------|
Ab|--10--10--10--10--10--10--10--10----8--8--8--8--8--8--8--8--------|
Db|--10--10--10--10--10--10--10--10----8--8--8--8--8--8--8--8--------|

Chorus 2 Guitar 2 (Distorted): 03:16
Eb|------------------------------------------------------------------|
Bb|------------------------------------------------------------------|
Gb|-------12--------------------------------10-----------------------|
Db|--13--------------------------------12----------------------------|
Ab|------------------------------------------------------------------|
Db|------------------------------------------------------------------|

Chorus 2 Guitar 1: 03:18
Eb|------------------------------------------------------------------|
Bb|------------------------------------------------------------------|
Gb|--10/12--12--12--12--12--12--12--8-8-8-8-8-8-8-8-7-7-7-7-7-7-7-7--|
Db|--8-/10--10--10--10--10--10--10--6-6-6-6-6-6-6-6-6-6-6-6-6-6-6-6--|
Ab|--8-/10--10--10--10--10--10--10--6-6-6-6-6-6-6-6-6-6-6-6-6-6-6-6--|
Db|--8-/10--10--10--10--10--10--10--6-6-6-6-6-6-6-6-6-6-6-6-6-6-6-6--|

Chorus 2 Guitar 2 (Distorted): 03:18
Eb|------------------------------------------------------10----------|
Bb|-------11-------------------------13---11---------11--------------|
Gb|--12--------------------------------------------------------------|
Db|------------------------------------------------------------------|
Ab|------------------------------------------------------------------|
Db|------------------------------------------------------------------|

Chorus 2 Guitar 1: 03:21
Eb|----------------------------------------------------------3-------|
Bb|----------------------------------------------------------3-------|
Gb|----------------------------------------------------------3-------|
Db|--3---3----3---3---3---3----1---1----1---1---1---1--------1-------|
Ab|--3---3----3---3---3---3----1---1----1---1---1---1--------3-------|
Db|--3---3----3---3---3---3----1---1----1---1---1---1----------------|

Chorus 2 Guitar 2 (Distorted): 03:22
Eb|---------------------------------11-------------------------------|
Bb|--11------------------------11------------------------------------|
Gb|----------------------------------------------------------10----8-|
Db|------------------------------------------------------------------|
Ab|------------------------------------------------------------------|
Db|------------------------------------------------------------------|

Finished!





Comments


Popular 10 Years tabs & chords
Beautiful 1 Bass Tabs
So Long Goodbye 3 Chords
All Your Lies Tabs
Cast It Out 1 Tabs
Fade Into The Ocean Tabs
Half Life 2 Tabs
Knives Tabs
Seasons To Cycles Tabs
Shelter 3 Tabs
Silhouette Of A Life Intro Tabs


Song lyrics



↑ Back to top | Tablatures and chords are parodies/interpretations of the original songs. You may use it for private study, scholarship, research or language learning purposes only
© 2014 AZChords.com Contact us | Privacy policy | DMCA | Add/correct tabs | Request tabs | Top 50 tabs