» » »

10 Years, Insects Bass tabs (ver.1)

Artists:  A B C D E F G H I J K L M N O P Q R S T U V W X Y Z # 

Insects Bass tabs (ver.1)

10 Years Tabs
 Rating:
4.3/5 (6 votes)
Insects lessons Tabs too difficult? Try these video lessons and learn fast
1
                10 Years 
Insects 
Drop Db 

Intro: Rest

Verse:
|-------------------|-------------------|
|-------15----15----|-------14----14----|
|----12----12----12-|----12----12----12-|
|-12----------------|-12----------------|X3 

|-------------------|-------------12-14-|
|-------15----15----|-------14-15-------|
|----12----12----12-|----12-------------|
|-12----------------|-12----------------|X1 

Play the above part X2 

|-------------|-------------|
|-----3---3---|-----2---2---|
|---0---0---0-|---0---0---0-|
|-0-----------|-0-----------|X3

|-------------|---------0-2-|
|-----3---3---|-----2-3-----|
|---0---0---0-|---0---------|
|-0-----------|-0-----------|X1

Play that part X2 

Chorus: 
|---------------|--------------------|-----------------| 
|---------------|--------------------|-----------------|
|---8-8---8--88-|---10-10---10--1010-|-----------------|
|-0-----0-------|-0-------0----------|-8-8--10-10-5-5--|X4

Verse:
Chorus:

Bridge: 
|----------|----------|----------|-----2p0-----|
|----------|----------|----------|---------2h3-|
|----------|----------|----------|-------------|
|-0------0-|-2------2-|-0------2-|-/5----------|X4

Chorus: 

Outro:
|-----------|
|-----------|
|-----------|
|-0~~~------|
            
Submit corrections

comments powered by Disqus
↑ Back to top | 10 Years Bass for Insects. Lyrics for acoustic guitar and electric guitar. 1 Tablatures and chords are parodies/interpretations of the original songs. You may use it for private study, scholarship, research or language learning purposes only