» » »

10 Years, Frailty Tabs (ver.1)

Artists:  A B C D E F G H I J K L M N O P Q R S T U V W X Y Z # 

Frailty Tabs (ver.1)

10 Years Tabs
 Rating:
4/5 (5 votes)
Frailty lessons Tabs too difficult? Try these video lessons and learn fast
1
                Band: 10 YEARS!!!
Tuning: Dropped Db

Haven't tabbed for a while, but just one thing...
I don't see how no one has decided to put
this song up!!! It's the best & my favorite from
these guys!!! This is the best I can get it to 
best sound like the song, so I know this isn't
100% correct...have any corrections, comments, 



   Intro:(Nice & clean sound)     [x4]
Eb|-----------------------------------|                     
Bb|-----------------------------------|                     
Gb|-----------------------------------|                     
Db|---9-9---9-9---9-9-9-10-10-10-10-10|
Ab|-7-----7-----7---------------------|                     
Db|-7-----7-----7---------------------|

   Verses 1&2: (Same sound as on intro)                   [x4]
Eb|-----------------------------------------------------------|
Bb|-----------------------------------------------------------|
Gb|-------------------------------------------------12--------|
Db|---9-9---9-9---9-9-9-10-10-10-10-10----9-9---9-9----12-9-10|
Ab|-7-----7-----7-----------------------7-----7---------------|
Db|-7-----7-----7-----------------------7-----7---------------|

(Before verse 2, play the intro only 2 times & the verse 2 times)

   "Envious" Chorus: (So-so distortion)
Eb|------------------------------------------------------|
Bb|------------------------------------------------------|
Gb|------------------------------------------------------|
Db|-7-----3-----7-----5-----7-----3-----7-----5----------|
Ab|-7-----3-----7-----5-----7-----3-----7-----5----------|
Db|-7-----3-----7-----5-----7-----3-----7-----5----------|
(Find out the number of times you play the chords)


   Bridge: (Same distortion as on chorus)                      [x2]
Eb|----------------------------------------------------------------|
Bb|----------------------------------------------------------------|
Gb|---------7/10-10-10-10-10-10/12-12-12-12-12-12/14-14-14-14-14-14|
Db|-0-00-0--x-----x--x--x--x--x-----x--x--x--x--x-----x--x--x--x--x|
Ab|-0-00-0--5/-8--8--8--8--8--8/---10-10-10-10-10/12-12-12-12-12-12|
Db|-0-00-0---------------------------------------------------------|

Eb|--------------------|
Bb|--------------------|
Gb|--------------------|
Db|-7-----3-----7-----5|
Ab|-7-----3-----7-----5|
Db|-7-----3-----7-----5|

Eb|----------------------------------------------------------------|
Bb|----------------------------------------------------------------|
Gb|---------7/10-10-10-10-10-10/12-12-12-12-12-12/14-14-14-14-14-14|
Db|-0-00-0--x-----x--x--x--x--x-----x--x--x--x--x-----x--x--x--x--x|
Ab|-0-00-0--5/-8--8--8--8--8--8/---10-10-10-10-10/12-12-12-12-12-12|
Db|-0-00-0---------------------------------------------------------|


Eb|---------------------------|
Bb|---------------------------|
Gb|---------------------------|
Db|-0--3--2--3--10--9--3--5---|
Ab|-0--3--2--3--10--9--3--5---|
Db|-0--3--2--3--10--9--3--5--7|

  (Clean notes; let the notes ring)        (Distortion here)
Eb|----------12---------12----------------|--------------------------------|
Bb|-12-----------10-----12--10------------|--------------------------------|
Gb|-----9--------------------9-----7-5-4-0|--------------------------------|
Db|---------------------------------------|-5/7-7/9-9/10-10/12-12----------|
Ab|---------------------------------------|-x---x---x-----x-----x----------|
Db|---------------------------------------|-5/7-7/9-9/10-10/12-12----------|
                                       (Listen for # of each chord strummed)


   (Clean)             (Distorted)            (Clean)
Eb|-------------------|----------------------|------------------|
Bb|-------------------|----------------------|--------------12--|
Gb|-------------------|----------------------|-----------------9|
Db|-7---7---7--10-9-5-|-5/7-7/9-9/10-10/12-12|-7---7---7--------|
Ab|---7---7-----------|-x---x---x-----x-----x|---7---7----------|
Db|-------------------|-5/7-7/9-9/10-10/12-12|------------------|

   (Distortion through the rest of the song)
Eb|--------------------------------------------------|
Bb|--------------------------------------------------|
Gb|-7-5-4-0------------------------------------------|
Db|---------5/777777/999999/101010101010/121212121212|
Ab|---------5/777777/999999/101010101010/121212121212|
Db|---------5/777777/999999/101010101010/121212121212|

Eb|-------------------------------|
Bb|-------------------------------|
Gb|-------------------------------|
Db|-7-5-7-5-7-5-7-5-7-5-7-5-10-9-5|
Ab|-7-5-7-5-7-5-7-5-7-5-7-5-10-9-5|
Db|-7-5-7-5-7-5-7-5-7-5-7-5-10-9-5|

Eb|------------------------------------------|
Bb|------------------------------------------|
Gb|------------------------------------------|
Db|-5/777777/999999/101010101010/121212121212|
Ab|-5/777777/999999/101010101010/121212121212|
Db|-5/777777/999999/101010101010/121212121212|

Eb|-------------------------------|
Bb|-------------------------------|
Gb|-------------------------------|
Db|-7-5-7-5-7-5-7-5-7-5-7-5-10-9-5|
Ab|-7-5-7-5-7-5-7-5-7-5-7-5-10-9-5|
Db|-7-5-7-5-7-5-7-5-7-5-7-5-10-9-5|


Eb|---------------------|
Bb|---------------------|
Gb|----9---------------9|
Db|-5--9--7--10-9\5-5--9|
Ab|-5--7--7--10-9\5-5--7|
Db|-5-----7--10-9\5-5---|

Eb|--------------------------------------------------------|
Bb|--------------------------------------------------------|
Gb|--------------------------------------------------------|
Db|-7-5-7-5--7-7-7--7-5-7-5--7-7--7-5-7-5--7-7-7--7-5-7-5-7|
Ab|-7-5-7-5--7-7-7--7-5-7-5--7-7--7-5-7-5--7-7-7--7-5-7-5-7|
Db|-7-5-7-5--7-7-7--7-5-7-5--7-7--7-5-7-5--7-7-7--7-5-7-5-7|

And that there, is Frailty, by the ONE, THE ONLY, 10 YEARS!!!
            
Submit corrections

comments powered by Disqus
↑ Back to top | 10 Years Tabs for Frailty. Lyrics for acoustic guitar and electric guitar. 1 Tablatures and chords are parodies/interpretations of the original songs. You may use it for private study, scholarship, research or language learning purposes only