>
 >
Focus

Focus Guitar Tabs

10 Years - Focus chords, tabs, tablatures, lyrics

Guitar lessons | Add/correct | Request | Top 50 tabs Artists:  A B C D E F G H I J K L M N O P Q R S T U V W X Y Z 0-9

Focus Guitar Tabs – 10 Years

CD, Sheet music, Poster

Do you like Focus? Share with your friends now
Tabs
10 Years                         *UPDATE 7/24/2008 UPDATE*
Tuning B F# B E G# C#

Legend
/-slide up                                p-pull off                                ()-optional
\-slide down                              h-hammer on

The first tab is the real tuning, Drop B, and the Drop Db follows after.

Intro: Guitar 1 (Acoustic)
|--------------------------------------------------------------------------------------------------|
|--------------------14--14-14--14--14-14--14-14----------------------14--14-14--14--14-14--14-14--|
|---------------------x---x--x---x---x--x---x--x-----------------------x---x--x---x---x--x---x--x--|
|--2-/-4-\-2---4--/--11--11-11--11--11-11--11-11----2-/-4-\-2---4--/--11--11-11--11--11-11--11-11--|
|--0------------------------------------------------0----------------------------------------------|
|--------------------------------------------------------------------------------------------------|

Verse 1: Guitar 1 (Acoustic)
|--------------------------------------------------------------------------------------------------|
|--------------------14--14-14--14--14-14--14-14----------------------14--14-14--14--14-14--14-14--|
|---------------------x---x--x---x---x--x---x--x-----------------------x---x--x---x---x--x---x--x--|
|--2-/-4-\-2---4--/--11--11-11--11--11-11--11-11----2-/-4-\-2---4--/--11--11-11--11--11-11--11-11--|
|--0------------------------------------------------0----------------------------------------------|
|--------------------------------------------------------------------------------------------------|

Verse 1: Guitar 1 (Acoustic)
|--------------------------------------------------------------------------------------------------|
|--------------------14--12-12--14--12-12--14-12----------------------14--12-12--14--12-12--14-12--|
|---------------------x---x--x---x---x--x---x--x-----------------------x---x--x---x---x--x---x--x--|
|--2-/-4-\-2------/--11--11-11--11--11-11--11-11----2-/-4-\-2------/--11--11-11--11--11-11--11-11--|
|--0------------------------------------------------0----------------------------------------------|
|--------------------------------------------------------------------------------------------------|

Pre-Chorus: Guitar 1 (Acoustic)
|--------------------------------------------------------------------------------------------------|
|--12---------10-----------8-----------7------------------------------14--14-14--14--14-14--14-14--|
|--12----------9-----------7-----------7-------------------------------x---x--x---x---x--x---x--x--|
|--10----------9-----------5------------------------2-/-4-\-2---4--/--11--11-11--11--11-11--11-11--|
|---------------------------------------------------0----------------------------------------------|
|--------------------------------------------------------------------------------------------------|
                                                                                                   |
Pre-Chorus: Guitar 2 (Clean electric)                                                              |
|---------------------------------------------------0----------------------------------------------|
|--12---------10-----------8-----------7------------5----------------------------------------------|
|--12----------9-----------7-----------7------------6----------------------------------------------|
|--10----------9-----------5------------------------7----------------------------------------------|
|--------------------------------------------------------------------------------------------------|
|--------------------------------------------------------------------------------------------------|

Pre-Chorus: Guitar 1 (Acoustic)
|------------------5-------------------------------------------------------------------------------|
|---8-/-10-\--8----8-----------7--------------------------------------14--14-14--14--14-14--14-14--|
|---7-/--9-\--7----7-------6---6---------------------------------------x---x--x---x---x--x---x--x--|
|---5-/--7-\--5----5-------4---4--------------------2-/-4-\-2------/--11--11-11--11--11-11--11-11--|
|---------------------------------------------------0----------------------------------------------|
|--------------------------------------------------------------------------------------------------|
                                                                                                   |
Pre-Chorus: Guitar 2 (Clean electric)                                                              |
|------------------5-------------------------------------------------------------------------------|
|---8-/-10-\--8----8-----------7-------------------------------------------------------------------|
|---7-/--9-\--7----7-------6---6-------------------------------------------------------------------|
|---5-/--7-\--5----5-------4---4-------------------------------------------------------------------|
|--------------------------------------------------------------------------------------------------|
|--------------------------------------------------------------------------------------------------|

Chorus: Guitar 1 (Acoustic) *Strum*
|--------------------------------------------------------------------------------------------------|
|--------------------------------------------------------------------------------------------------|
|--9----------------------------------------------9------------------------------------------------|
|--7----------------------------------------------10-----------------------------------------------|
|--7----------------------------------------------8------------------------------------------------|
|--7-----------------------------------------------------------------------------------------------|
                                                                                                   |
Chorus: Guitar 2 (Distorted)                                                                       |
|--------------------------------------------------------------------------------------------------|
|--------------------------------------------------------------------------------------------------|
|-------------------------------------------------2----------------------------2--------------2----|
|--2------------------2p0----------2p0-------------------------------2-p-0--2-------2-p-0--2-------|
|--------------------------3/5--0-------3/5--0-----------------------------------------------------|
|--------------------------------------------------------------------------------------------------|
                                                                                                   |
Chorus: Guitar 3 (Distorted) *studio fill in guitar*                                               |
|--------------------------------------------------------------------------------------------------|
|-------------------------------------------------5------------------------------------------------|
|--9----------------------------------------------5------------------------------------------------|
|--7----------------------------------------------3------------------------------------------------|
|--7----------------------------------------------3------------------------------------------------|
|--7----------------------------------------------3------------------------------------------------|
                                                                                                   |
Chorus: Guitar 4 (Clean with slide) *studio fill in guitar*                                        |
|-------------------------------------5-----------3------------------------------------------------|
|--------------------------------------------------------------------------------------------------|
|--------------------------------------------------------------------------------------------------|
|--------------------------------------------------------------------------------------------------|
|--------------------------------------------------------------------------------------------------|
|--------------------------------------------------------------------------------------------------|

Chorus: Guitar 1 (Acoustic) *Strum*
|--------------------------------------------------------------------------------------------------|
|--------------------------------------------------------------------------------------------------|
|--9----------------------------------------------9------------------------------------------------|
|--7----------------------------------------------10-----------------------------------------------|
|--7----------------------------------------------8------------------------------------------------|
|--7-----------------------------------------------------------------------------------------------|
                                                                                                   |
Chorus: Guitar 2 (Distorted)                                                                       |
|--------------------------------------------------------------------------------------------------|
|--------------------------------------------------------------------------------------------------|
|-------------------------------------------------2----------------------------2--------------2----|
|--2------------------2p0----------2p0-------------------------------2-p-0--2-------2-p-0--2-------|
|--------------------------3/5--0-------3/5--0-----------------------------------------------------|
|--------------------------------------------------------------------------------------------------|
                                                                                                   |
Chorus: Guitar 3 (Distorted) *studio fill in guitar*                                               |
|--------------------------------------------------------------------------------------------------|
|-------------------------------------------------5------------------------------------------------|
|--9----------------------------------------------5------------------------------------------------|
|--7----------------------------------------------3------------------------------------------------|
|--7----------------------------------------------3------------------------------------------------|
|--7----------------------------------------------3------------------------------------------------|
                                                                                                   |
Chorus: Guitar 4 (Clean with slide) *studio fill in guitar*                                        |
|-------------------------------------5-----------3------------------------------------------------|
|--------------------------------------------------------------------------------------------------|
|--------------------------------------------------------------------------------------------------|
|--------------------------------------------------------------------------------------------------|
|--------------------------------------------------------------------------------------------------|
|--------------------------------------------------------------------------------------------------|

Post Chorus: Guitar 1 (Acoustic)
|--------------------------------------------------------------------------------------------------|
|--------------------14--14-14--14--14-14--14-14----------------------14--14-14--14--14-14--14-14--|
|---------------------x---x--x---x---x--x---x--x-----------------------x---x--x---x---x--x---x--x--|
|--2-/-4-\-2---4--/--11--11-11--11--11-11--11-11----2-/-4-\-2---4--/--11--11-11--11--11-11--11-11--|
|--0------------------------------------------------0----------------------------------------------|
|--------------------------------------------------------------------------------------------------|
                                                                                                   |
Post Chorus: Guitar 3 (Distorted)                                                                  |
|--------------------------------------------------------------------------------------------------|
|--------------------------------------------------------------------------------------------------|
|--9-----------------------------------------------------------------------------------------------|
|--7-----------------------------------------------------------------------------------------------|
|--7-----------------------------------------------------------------------------------------------|
|--7-----------------------------------------------------------------------------------------------|

Verse 2: Guitar 1 (Acoustic)
|--------------------------------------------------------------------------------------------------|
|--------------------14--14-14--14--14-14--14-14----------------------14--14-14--14--14-14--14-14--|
|---------------------x---x--x---x---x--x---x--x-----------------------x---x--x---x---x--x---x--x--|
|--2-/-4-\-2---4--/--11--11-11--11--11-11--11-11----2-/-4-\-2---4--/--11--11-11--11--11-11--11-11--|
|--0------------------------------------------------0----------------------------------------------|
|--------------------------------------------------------------------------------------------------|

Verse 2: Guitar 1 (Acoustic)
|--------------------------------------------------------------------------------------------------|
|--------------------14--12-12--14--12-12--14-12----------------------14--12-12--14--12-12--14-12--|
|---------------------x---x--x---x---x--x---x--x-----------------------x---x--x---x---x--x---x--x--|
|--2-/-4-\-2------/--11--11-11--11--11-11--11-11----2-/-4-\-2------/--11--11-11--11--11-11--11-11--|
|--0------------------------------------------------0----------------------------------------------|
|--------------------------------------------------------------------------------------------------|

Pre-Chorus: Guitar 1 (Acoustic)
|--------------------------------------------------------------------------------------------------|
|--12---------10-----------8-----------7------------------------------14--14-14--14--14-14--14-14--|
|--12----------9-----------7-----------7-------------------------------x---x--x---x---x--x---x--x--|
|--10----------9-----------5------------------------2-/-4-\-2---4--/--11--11-11--11--11-11--11-11--|
|---------------------------------------------------0----------------------------------------------|
|--------------------------------------------------------------------------------------------------|
                                                                                                   |
Pre-Chorus: Guitar 2 (Clean electric)                                                              |
|---------------------------------------------------0----------------------------------------------|
|--12---------10-----------8-----------7------------5----------------------------------------------|
|--12----------9-----------7-----------7------------6----------------------------------------------|
|--10----------9-----------5------------------------7----------------------------------------------|
|--------------------------------------------------------------------------------------------------|
|--------------------------------------------------------------------------------------------------|

Pre-Chorus: Guitar 1 (Acoustic)
|------------------5-------------------------------------------------------------------------------|
|---8-/-10-\--8----8-----------7--------------------------------------14--14-14--14--14-14--14-14--|
|---7-/--9-\--7----7-------6---6---------------------------------------x---x--x---x---x--x---x--x--|
|---5-/--7-\--5----5-------4---4--------------------2-/-4-\-2------/--11--11-11--11--11-11--11-11--|
|---------------------------------------------------0----------------------------------------------|
|--------------------------------------------------------------------------------------------------|
                                                                                                   |
Pre-Chorus: Guitar 2 (Clean electric)                                                              |
|------------------5-------------------------------------------------------------------------------|
|---8-/-10-\--8----8-----------7-------------------------------------------------------------------|
|---7-/--9-\--7----7-------6---6-------------------------------------------------------------------|
|---5-/--7-\--5----5-------4---4-------------------------------------------------------------------|
|--------------------------------------------------------------------------------------------------|
|--------------------------------------------------------------------------------------------------|

Chorus: Guitar 1 (Acoustic) *Strum*
|--------------------------------------------------------------------------------------------------|
|--------------------------------------------------------------------------------------------------|
|--9----------------------------------------------9------------------------------------------------|
|--7----------------------------------------------10-----------------------------------------------|
|--7----------------------------------------------8------------------------------------------------|
|--7-----------------------------------------------------------------------------------------------|
                                                                                                   |
Chorus: Guitar 2 (Distorted)                                                                       |
|--------------------------------------------------------------------------------------------------|
|--------------------------------------------------------------------------------------------------|
|-------------------------------------------------2----------------------------2--------------2----|
|--2------------------2p0----------2p0-------------------------------2-p-0--2-------2-p-0--2-------|
|--------------------------3/5--0-------3/5--0-----------------------------------------------------|
|--------------------------------------------------------------------------------------------------|
                                                                                                   |
Chorus: Guitar 3 (Distorted) *studio fill in guitar*                                               |
|--------------------------------------------------------------------------------------------------|
|-------------------------------------------------5------------------------------------------------|
|--9----------------------------------------------5------------------------------------------------|
|--7----------------------------------------------3------------------------------------------------|
|--7----------------------------------------------3------------------------------------------------|
|--7----------------------------------------------3------------------------------------------------|
                                                                                                   |
Chorus: Guitar 4 (Clean with slide) *studio fill in guitar*                                        |
|-------------------------------------5-----------3------------------------------------------------|
|--------------------------------------------------------------------------------------------------|
|--------------------------------------------------------------------------------------------------|
|--------------------------------------------------------------------------------------------------|
|--------------------------------------------------------------------------------------------------|
|--------------------------------------------------------------------------------------------------|

Chorus: Guitar 1 (Acoustic) *Strum*
|--------------------------------------------------------------------------------------------------|
|--------------------------------------------------------------------------------------------------|
|--9----------------------------------------------9------------------------------------------------|
|--7----------------------------------------------10-----------------------------------------------|
|--7----------------------------------------------8------------------------------------------------|
|--7-----------------------------------------------------------------------------------------------|
                                                                                                   |
Chorus: Guitar 2 (Distorted)                                                                       |
|--------------------------------------------------------------------------------------------------|
|--------------------------------------------------------------------------------------------------|
|-------------------------------------------------2----------------------------2--------------2----|
|--2------------------2p0----------2p0-------------------------------2-p-0--2-------2-p-0--2-------|
|--------------------------3/5--0-------3/5--0-----------------------------------------------------|
|--------------------------------------------------------------------------------------------------|
                                                                                                   |
Chorus: Guitar 3 (Distorted) *studio fill in guitar*                                               |
|--------------------------------------------------------------------------------------------------|
|-------------------------------------------------5------------------------------------------------|
|--9----------------------------------------------5------------------------------------------------|
|--7----------------------------------------------3------------------------------------------------|
|--7----------------------------------------------3------------------------------------------------|
|--7----------------------------------------------3------------------------------------------------|
                                                                                                   |
Chorus: Guitar 4 (Clean with slide) *studio fill in guitar*                                        |
|-------------------------------------5-----------3------------------------------------------------|
|--------------------------------------------------------------------------------------------------|
|--------------------------------------------------------------------------------------------------|
|--------------------------------------------------------------------------------------------------|
|--------------------------------------------------------------------------------------------------|
|--------------------------------------------------------------------------------------------------|

Post Chorus: Guitar 1 (Acoustic)
|--------------------------------------------------------------------------------------------------|
|--------------------14--14-14--14--14-14--14-14----------------------14--14-14--14--14-14--14-14--|
|---------------------x---x--x---x---x--x---x--x-----------------------x---x--x---x---x--x---x--x--|
|--2-/-4-\-2---4--/--11--11-11--11--11-11--11-11----2-/-4-\-2---4--/--11--11-11--11--11-11--11-11--|
|--0------------------------------------------------0----------------------------------------------|
|--------------------------------------------------------------------------------------------------|
                                                                                                   |
Post Chorus: Guitar 3 (Distorted)                                                                  |
|--------------------------------------------------------------------------------------------------|
|--------------------------------------------------------------------------------------------------|
|--9-----------------------------------------------------------------------------------------------|
|--7-----------------------------------------------------------------------------------------------|
|--7-----------------------------------------------------------------------------------------------|
|--7-----------------------------------------------------------------------------------------------|

Bridge: Guitar 1 (Acoustic)
|--------------------------------------------------------------------------------------------------|
|--10-/-12-10--10-/-12-10--10-/-12-10--9------------------------------14--14-14--14--14-14--14-14--|
|--------------------------------------8-------------------------------x---x--x---x---x--x---x--x--|
|---------------------------------------------------2-/-4-\-2---4--/--11--11-11--11--11-11--11-11--|
|---------------------------------------------------0----------------------------------------------|
|--------------------------------------------------------------------------------------------------|
                                                                                                   |
Bridge: Guitar 2 (Clean electric)                                                                  |
|---------------------------------------------------0----------------------------------------------|
|--12---------10-----------8-----------7------------5----------------------------------------------|
|--12----------9-----------7-----------7------------6----------------------------------------------|
|--10----------9-----------5------------------------7----------------------------------------------|
|--------------------------------------------------------------------------------------------------|
|--------------------------------------------------------------------------------------------------|

Bridge: Guitar 1 (Acoustic)
|--------------------------------------------------------------------------------------------------|
|--10-/-12-10--10-/-12-10--10-/-12-10--9------------------------------14--14-14--14--14-14--14-14--|
|--------------------------------------8-------------------------------x---x--x---x---x--x---x--x--|
|---------------------------------------------------2-/-4-\-2---4--/--11--11-11--11--11-11--11-11--|
|---------------------------------------------------0----------------------------------------------|
|--------------------------------------------------------------------------------------------------|
                                                                                                   |
Bridge: Guitar 2 (Clean electric)                                                                  |
|---------------------------------------------------0----------------------------------------------|
|--12---------10-----------8-----------7------------5----------------------------------------------|
|--12----------9-----------7-----------7------------6----------------------------------------------|
|--10----------9-----------5------------------------7----------------------------------------------|
|--------------------------------------------------------------------------------------------------|
|--------------------------------------------------------------------------------------------------|

Chorus: Guitar 1 (Acoustic) *Strum*
|--------------------------------------------------------------------------------------------------|
|--------------------------------------------------------------------------------------------------|
|--9----------------------------------------------9------------------------------------------------|
|--7----------------------------------------------10-----------------------------------------------|
|--7----------------------------------------------8------------------------------------------------|
|--7-----------------------------------------------------------------------------------------------|
                                                                                                   |
Chorus: Guitar 2 (Distorted)                                                                       |
|--------------------------------------------------------------------------------------------------|
|--------------------------------------------------------------------------------------------------|
|-----------------------------------------------------------2-----------2-----------2-----------2--|
|--2p0--------2p0--------2p0--------2p0-----------2-p-0--2----2-p-0--2----2-p-0--2----2-p-0--2-----|
|------3/5-0------3/5-0------3/5-0------3/5-0------------------------------------------------------|
|--------------------------------------------------------------------------------------------------|
                                                                                                   |
Chorus: Guitar 3 (Distorted) *studio fill in guitar*                                               |
|--------------------------------------------------------------------------------------------------|
|-------------------------------------------------5------------------------------------------------|
|--9----------------------------------------------5------------------------------------------------|
|--7----------------------------------------------3------------------------------------------------|
|--7----------------------------------------------3------------------------------------------------|
|--7----------------------------------------------3------------------------------------------------|
                                                                                                   |
Chorus: Guitar 4 (Clean with slide) *studio fill in guitar*                                        |
|-------------------------------------5-----------3------------------------------------------------|
|--------------------------------------------------------------------------------------------------|
|--------------------------------------------------------------------------------------------------|
|--------------------------------------------------------------------------------------------------|
|--------------------------------------------------------------------------------------------------|
|--------------------------------------------------------------------------------------------------|

Chorus: Guitar 1 (Acoustic) *Strum*
|--------------------------------------------------------------------------------------------------|
|--------------------------------------------------------------------------------------------------|
|--9----------------------------------------------9------------------------------------------------|
|--7----------------------------------------------10-----------------------------------------------|
|--7----------------------------------------------8------------------------------------------------|
|--7-----------------------------------------------------------------------------------------------|
                                                                                                   |
Chorus: Guitar 2 (Distorted)                                                                       |
|--------------------------------------------------------------------------------------------------|
|--------------------------------------------------------------------------------------------------|
|-----------------------------------------------------------2-----------2-----------2-----------2--|
|--2p0--------2p0--------2p0--------2p0-----------2-p-0--2----2-p-0--2----2-p-0--2----2-p-0--2-----|
|------3/5-0------3/5-0------3/5-0------3/5-0------------------------------------------------------|
|--------------------------------------------------------------------------------------------------|
                                                                                                   |
Chorus: Guitar 3 (Distorted) *studio fill in guitar*                                               |
|--------------------------------------------------------------------------------------------------|
|-------------------------------------------------5------------------------------------------------|
|--9----------------------------------------------5------------------------------------------------|
|--7----------------------------------------------3------------------------------------------------|
|--7----------------------------------------------3------------------------------------------------|
|--7----------------------------------------------3------------------------------------------------|
                                                                                                   |
Chorus: Guitar 4 (Clean with slide) *studio fill in guitar*                                        |
|-------------------------------------5-----------3------------------------------------------------|
|--------------------------------------------------------------------------------------------------|
|--------------------------------------------------------------------------------------------------|
|--------------------------------------------------------------------------------------------------|
|--------------------------------------------------------------------------------------------------|
|--------------------------------------------------------------------------------------------------|

Chorus: Guitar 1 (Acoustic) *Strum*
|--------------------------------------------------------------------------------------------------|
|--------------------------------------------------------------------------------------------------|
|--9----------------------------------------------9------------------------------------------------|
|--7----------------------------------------------10-----------------------------------------------|
|--7----------------------------------------------8------------------------------------------------|
|--7-----------------------------------------------------------------------------------------------|
                                                                                                   |
Chorus: Guitar 2 (Distorted)                                                                       |
|--------------------------------------------------------------------------------------------------|
|--------------------------------------------------------------------------------------------------|
|-----------------------------------------------------------2-----------2-----------2-----------2--|
|--2p0--------2p0--------2p0--------2p0-----------2-p-0--2----2-p-0--2----2-p-0--2----2-p-0--2-----|
|------3/5-0------3/5-0------3/5-0------3/5-0------------------------------------------------------|
|--------------------------------------------------------------------------------------------------|
                                                                                                   |
Chorus: Guitar 3 (Distorted) *studio fill in guitar*                                               |
|--------------------------------------------------------------------------------------------------|
|-------------------------------------------------5------------------------------------------------|
|--9----------------------------------------------5------------------------------------------------|
|--7----------------------------------------------3------------------------------------------------|
|--7----------------------------------------------3------------------------------------------------|
|--7----------------------------------------------3------------------------------------------------|
                                                                                                   |
Chorus: Guitar 4 (Clean with slide) *studio fill in guitar*                                        |
|-------------------------------------5-----------3------------------------------------------------|
|--------------------------------------------------------------------------------------------------|
|--------------------------------------------------------------------------------------------------|
|--------------------------------------------------------------------------------------------------|
|--------------------------------------------------------------------------------------------------|
|--------------------------------------------------------------------------------------------------|

Chorus: Guitar 1 (Acoustic) *Strum*
|--------------------------------------------------------------------------------------------------|
|--------------------------------------------------------------------------------------------------|
|--9----------------------------------------------9------------------------------------------------|
|--7----------------------------------------------10-----------------------------------------------|
|--7----------------------------------------------8------------------------------------------------|
|--7-----------------------------------------------------------------------------------------------|
                                                                                                   |
Chorus: Guitar 2 (Distorted)                                                                       |
|--------------------------------------------------------------------------------------------------|
|--------------------------------------------------------------------------------------------------|
|-----------------------------------------------------------2-----------2-----------2-----------2--|
|--2p0--------2p0--------2p0--------2p0-----------2-p-0--2----2-p-0--2----2-p-0--2----2-p-0--2-----|
|------3/5-0------3/5-0------3/5-0------3/5-0------------------------------------------------------|
|--------------------------------------------------------------------------------------------------|
                                                                                                   |
Chorus: Guitar 3 (Distorted) *studio fill in guitar*                                               |
|--------------------------------------------------------------------------------------------------|
|-------------------------------------------------5------------------------------------------------|
|--9----------------------------------------------5------------------------------------------------|
|--7----------------------------------------------3------------------------------------------------|
|--7----------------------------------------------3------------------------------------------------|
|--7----------------------------------------------3------------------------------------------------|
                                                                                                   |
Chorus: Guitar 4 (Clean with slide) *studio fill in guitar*                                        |
|-------------------------------------5-----------3------------------------------------------------|
|--------------------------------------------------------------------------------------------------|
|--------------------------------------------------------------------------------------------------|
|--------------------------------------------------------------------------------------------------|
|--------------------------------------------------------------------------------------------------|
|--------------------------------------------------------------------------------------------------|

Outro: Guitar 1 (Acoustic)
|--------------------------------------------------------------------------------------------------|
|-----------------/--14----------------------------------------------------------------------------|
|---------------------x----------------------------------------------------------------------------|
|--2-/-4-\-2---4--/--11----------------------------------------------------------------------------|
|--0-----------------------------------------------------------------------------------------------|
|--------------------------------------------------------------------------------------------------|
                                                                                                   |
Outro: Guitar 2 (Distorted)                                                                        |
|--------------------------------------------------------------------------------------------------|
|--------------------------------------------------------------------------------------------------|
|--------------------------2-----------------------------------------------------------------------|
|-------------------------(2)----------------------------------------------------------------------|
|--------------------------------------------------------------------------------------------------|
|--------------------------------------------------------------------------------------------------|

Finished!




10 Years
Tuning Db Ab Db Gb Bb Eb

Legend
/-slide up                                p-pull off                                ()-optional
\-slide down                              h-hammer on

In this song there are a few fill in guitars, just listen and you’ll hear them. Hope you like the tab.

Intro: Guitar 1 (Acoustic)
|--------------------------------------------------------------------------------------------------|
|--------------------------------------------------------------------------------------------------|
|--7-/-9-\-7---9--/--16--16-16--16--16-16--16-16----7-/-9-\-7---9--/--16--16-16--16--16-16--16-16--|
|--x---x---x---x------x---x--x---x---x--x---x--x----x---x---x---x------x---x--x---x---x--x---x--x--|
|--5-/-7-\-5---7--/--14--14-14--14--14-14--14-14----5-/-7-\-5---7--/--14--14-14--14--14-14--14-14--|
|--------------------------------------------------------------------------------------------------|

Verse 1: Guitar 1 (Acoustic)
|--------------------------------------------------------------------------------------------------|
|--------------------------------------------------------------------------------------------------|
|--7-/-9-\-7---9--/--16--16-16--16--16-16--16-16----7-/-9-\-7---9--/--16--16-16--16--16-16--16-16--|
|--x---x---x---x------x---x--x---x---x--x---x--x----x---x---x---x------x---x--x---x---x--x---x--x--|
|--5-/-7-\-5---7--/--14--14-14--14--14-14--14-14----5-/-7-\-5---7--/--14--14-14--14--14-14--14-14--|
|--------------------------------------------------------------------------------------------------|

Verse 1: Guitar 1 (Acoustic)
|--------------------------------------------------------------------------------------------------|
|--------------------------------------------------------------------------------------------------|
|--7-/-9-\-7------/--16--14-14--16--14-14--16-14----7-/-9-\-7------/--16--14-14--16--14-14--16-14--|
|--x---x---x----------x---x--x---x---x--x---x--x----x---x---x----------x---x--x---x---x--x---x--x--|
|--5-/-7-\-5------/--14--14-14--14--14-14--14-14----5-/-7-\-5------/--14--14-14--14--14-14--14-14--|
|--------------------------------------------------------------------------------------------------|

Pre-Chorus: Guitar 1 (Acoustic)
|--------------------------------------------------------------------------------------------------|
|--10----------8-----------------------------------------------------------------------------------|
|--10----------7----------10-----------9------------7-/-9-\-7---9--/--16--16-16--16--16-16--16-16--|
|---8----------7----------10----------10------------x---x---x---x------x---x--x---x---x--x---x--x--|
|---------------------------------------------------5-/-7-\-5---7--/--14--14-14--14--14-14--14-14--|
|--------------------------------------------------------------------------------------------------|
                                                                                                   |
Pre-Chorus: Guitar 2 (Clean electric)                                                              |
|--------------------------------------------------------------------------------------------------|
|--10----------8-----------------------------------------------------------------------------------|
|--10----------7----------10-----------9-----------------------------------------------------------|
|---8----------7----------10----------10-----------------------------------------------------------|
|--------------------------------------------------------------------------------------------------|
|--------------------------------------------------------------------------------------------------|

Pre-Chorus: Guitar 1 (Acoustic)
|--------------------------------------------------------------------------------------------------|
|------------------8-------------------------------------------------------------------------------|
|--10-/-12-\-10----10----------9--------------------7-/-9-\-7------/--16--16-16--16--16-16--16-16--|
|--10-/-12-\-10----10------9---9--------------------x---x---x----------x---x--x---x---x--x---x--x--|
|--8--/-10-\-8-----8-------7---7--------------------5-/-7-\-5------/--14--14-14--14--14-14--14-14--|
|--------------------------------------------------------------------------------------------------|
                                                                                                   |
Pre-Chorus: Guitar 2 (Clean electric)                                                              |
|--------------------------------------------------------------------------------------------------|
|------------------8-------------------------------------------------------------------------------|
|--10-/-12-\-10----10----------9-------------------------------------------------------------------|
|--10-/-12-\-10----10------9---9-------------------------------------------------------------------|
|--8--/-10-\-8-----8-------7---7-------------------------------------------------------------------|
|--------------------------------------------------------------------------------------------------|

Chorus: Guitar 1 (Acoustic) *Strum*
|--------------------------------------------------------------------------------------------------|
|--------------------------------------------------------------------------------------------------|
|--7----------------------------------------------7------------------------------------------------|
|--5----------------------------------------------8------------------------------------------------|
|--5----------------------------------------------6------------------------------------------------|
|--5-----------------------------------------------------------------------------------------------|
                                                                                                   |
Chorus: Guitar 2 (Distorted)                                                                       |
|--------------------------------------------------------------------------------------------------|
|--------------------------------------------------------------------------------------------------|
|-------------------------------------------------0----------------------------0--------------0----|
|--0------------------------------------------------------------------------0--------------0-------|
|---------------------5p3--1h3-----5p3--1h3--------------------------3-p-1----------3-p-1----------|
|-------------------------------5------------5-----------------------------------------------------|
                                                                                                   |
Chorus: Guitar 3 (Distorted) *studio fill in guitar*                                               |
|--------------------------------------------------------------------------------------------------|
|-------------------------------------------------3------------------------------------------------|
|--7----------------------------------------------0------------------------------------------------|
|--5----------------------------------------------1------------------------------------------------|
|--5----------------------------------------------1------------------------------------------------|
|--5----------------------------------------------1------------------------------------------------|
                                                                                                   |
Chorus: Guitar 4 (Clean with slide) *studio fill in guitar*                                        |
|--------------------------------------------------------------------------------------------------|
|--------------------------------------------------------------------------------------------------|
|-------------------------------------12----------10-----------------------------------------------|
|--------------------------------------------------------------------------------------------------|
|--------------------------------------------------------------------------------------------------|
|--------------------------------------------------------------------------------------------------|

Chorus: Guitar 1 (Acoustic) *Strum*
|--------------------------------------------------------------------------------------------------|
|--------------------------------------------------------------------------------------------------|
|--7----------------------------------------------7------------------------------------------------|
|--5----------------------------------------------8------------------------------------------------|
|--5----------------------------------------------6------------------------------------------------|
|--5-----------------------------------------------------------------------------------------------|
                                                                                                   |
Chorus: Guitar 2 (Distorted)                                                                       |
|--------------------------------------------------------------------------------------------------|
|--------------------------------------------------------------------------------------------------|
|-------------------------------------------------0----------------------------0--------------0----|
|--0------------------------------------------------------------------------0--------------0-------|
|---------------------5p3--1h3-----5p3--1h3--------------------------3-p-1----------3-p-1----------|
|-------------------------------5------------5-----------------------------------------------------|
                                                                                                   |
Chorus: Guitar 3 (Distorted) *studio fill in guitar*                                               |
|--------------------------------------------------------------------------------------------------|
|-------------------------------------------------3------------------------------------------------|
|--7----------------------------------------------0------------------------------------------------|
|--5----------------------------------------------1------------------------------------------------|
|--5----------------------------------------------1------------------------------------------------|
|--5----------------------------------------------1------------------------------------------------|
                                                                                                   |
Chorus: Guitar 4 (Clean with slide) *studio fill in guitar*                                        |
|--------------------------------------------------------------------------------------------------|
|--------------------------------------------------------------------------------------------------|
|-------------------------------------12----------10-----------------------------------------------|
|--------------------------------------------------------------------------------------------------|
|--------------------------------------------------------------------------------------------------|
|--------------------------------------------------------------------------------------------------|

Post Chorus: Guitar 1 (Acoustic)
|--------------------------------------------------------------------------------------------------|
|--------------------------------------------------------------------------------------------------|
|--7-/-9-\-7---9--/--16--16-16--16--16-16--16-16----7-/-9-\-7---9--/--16--16-16--16--16-16--16-16--|
|--x---x---x---x------x---x--x---x---x--x---x--x----x---x---x---x------x---x--x---x---x--x---x--x--|
|--5-/-7-\-5---7--/--14--14-14--14--14-14--14-14----5-/-7-\-5---7--/--14--14-14--14--14-14--14-14--|
|--------------------------------------------------------------------------------------------------|
                                                                                                   |
Post Chorus: Guitar 3 (Distorted)                                                                  |
|--------------------------------------------------------------------------------------------------|
|--------------------------------------------------------------------------------------------------|
|--7-----------------------------------------------------------------------------------------------|
|--5-----------------------------------------------------------------------------------------------|
|--5-----------------------------------------------------------------------------------------------|
|--5-----------------------------------------------------------------------------------------------|

Verse 2: Guitar 1 (Acoustic)
|--------------------------------------------------------------------------------------------------|
|--------------------------------------------------------------------------------------------------|
|--7-/-9-\-7---9--/--16--16-16--16--16-16--16-16----7-/-9-\-7---9--/--16--16-16--16--16-16--16-16--|
|--x---x---x---x------x---x--x---x---x--x---x--x----x---x---x---x------x---x--x---x---x--x---x--x--|
|--5-/-7-\-5---7--/--14--14-14--14--14-14--14-14----5-/-7-\-5---7--/--14--14-14--14--14-14--14-14--|
|--------------------------------------------------------------------------------------------------|

Verse 2: Guitar 1 (Acoustic)
|--------------------------------------------------------------------------------------------------|
|--------------------------------------------------------------------------------------------------|
|--7-/-9-\-7------/--16--14-14--16--14-14--16-14----7-/-9-\-7------/--16--14-14--16--14-14--16-14--|
|--x---x---x----------x---x--x---x---x--x---x--x----x---x---x----------x---x--x---x---x--x---x--x--|
|--5-/-7-\-5------/--14--14-14--14--14-14--14-14----5-/-7-\-5------/--14--14-14--14--14-14--14-14--|
|--------------------------------------------------------------------------------------------------|

Pre-Chorus: Guitar 1 (Acoustic)
|--------------------------------------------------------------------------------------------------|
|--10----------8-----------------------------------------------------------------------------------|
|--10----------7----------10-----------9------------7-/-9-\-7---9--/--16--16-16--16--16-16--16-16--|
|---8----------7----------10----------10------------x---x---x---x------x---x--x---x---x--x---x--x--|
|---------------------------------------------------5-/-7-\-5---7--/--14--14-14--14--14-14--14-14--|
|--------------------------------------------------------------------------------------------------|
                                                                                                   |
Pre-Chorus: Guitar 2 (Clean electric)                                                              |
|--------------------------------------------------------------------------------------------------|
|--10----------8-----------------------------------------------------------------------------------|
|--10----------7----------10-----------9-----------------------------------------------------------|
|---8----------7----------10----------10-----------------------------------------------------------|
|--------------------------------------------------------------------------------------------------|
|--------------------------------------------------------------------------------------------------|

Pre-Chorus: Guitar 1 (Acoustic)
|--------------------------------------------------------------------------------------------------|
|------------------8-------------------------------------------------------------------------------|
|--10-/-12-\-10----10----------9--------------------7-/-9-\-7------/--16--16-16--16--16-16--16-16--|
|--10-/-12-\-10----10------9---9--------------------x---x---x----------x---x--x---x---x--x---x--x--|
|--8--/-10-\-8-----8-------7---7--------------------5-/-7-\-5------/--14--14-14--14--14-14--14-14--|
|--------------------------------------------------------------------------------------------------|
                                                                                                   |
Pre-Chorus: Guitar 2 (Clean electric)                                                              |
|--------------------------------------------------------------------------------------------------|
|------------------8-------------------------------------------------------------------------------|
|--10-/-12-\-10----10----------9-------------------------------------------------------------------|
|--10-/-12-\-10----10------9---9-------------------------------------------------------------------|
|--8--/-10-\-8-----8-------7---7-------------------------------------------------------------------|
|--------------------------------------------------------------------------------------------------|

Chorus: Guitar 1 (Acoustic) *Strum*
|--------------------------------------------------------------------------------------------------|
|--------------------------------------------------------------------------------------------------|
|--7----------------------------------------------7------------------------------------------------|
|--5----------------------------------------------8------------------------------------------------|
|--5----------------------------------------------6------------------------------------------------|
|--5-----------------------------------------------------------------------------------------------|
                                                                                                   |
Chorus: Guitar 2 (Distorted)                                                                       |
|--------------------------------------------------------------------------------------------------|
|--------------------------------------------------------------------------------------------------|
|-------------------------------------------------0----------------------------0--------------0----|
|--0------------------------------------------------------------------------0--------------0-------|
|---------------------5p3--1h3-----5p3--1h3--------------------------3-p-1----------3-p-1----------|
|-------------------------------5------------5-----------------------------------------------------|
                                                                                                   |
Chorus: Guitar 3 (Distorted) *studio fill in guitar*                                               |
|--------------------------------------------------------------------------------------------------|
|-------------------------------------------------3------------------------------------------------|
|--7----------------------------------------------0------------------------------------------------|
|--5----------------------------------------------1------------------------------------------------|
|--5----------------------------------------------1------------------------------------------------|
|--5----------------------------------------------1------------------------------------------------|
                                                                                                   |
Chorus: Guitar 4 (Clean with slide) *studio fill in guitar*                                        |
|--------------------------------------------------------------------------------------------------|
|--------------------------------------------------------------------------------------------------|
|-------------------------------------12----------10-----------------------------------------------|
|--------------------------------------------------------------------------------------------------|
|--------------------------------------------------------------------------------------------------|
|--------------------------------------------------------------------------------------------------|

Chorus: Guitar 1 (Acoustic) *Strum*
|--------------------------------------------------------------------------------------------------|
|--------------------------------------------------------------------------------------------------|
|--7----------------------------------------------7------------------------------------------------|
|--5----------------------------------------------8------------------------------------------------|
|--5----------------------------------------------6------------------------------------------------|
|--5-----------------------------------------------------------------------------------------------|
                                                                                                   |
Chorus: Guitar 2 (Distorted)                                                                       |
|--------------------------------------------------------------------------------------------------|
|--------------------------------------------------------------------------------------------------|
|-------------------------------------------------0----------------------------0--------------0----|
|--0------------------------------------------------------------------------0--------------0-------|
|---------------------5p3--1h3-----5p3--1h3--------------------------3-p-1----------3-p-1----------|
|-------------------------------5------------5-----------------------------------------------------|
                                                                                                   |
Chorus: Guitar 3 (Distorted) *studio fill in guitar*                                               |
|--------------------------------------------------------------------------------------------------|
|-------------------------------------------------3------------------------------------------------|
|--7----------------------------------------------0------------------------------------------------|
|--5----------------------------------------------1------------------------------------------------|
|--5----------------------------------------------1------------------------------------------------|
|--5----------------------------------------------1------------------------------------------------|
                                                                                                   |
Chorus: Guitar 4 (Clean with slide) *studio fill in guitar*                                        |
|--------------------------------------------------------------------------------------------------|
|--------------------------------------------------------------------------------------------------|
|-------------------------------------12----------10-----------------------------------------------|
|--------------------------------------------------------------------------------------------------|
|--------------------------------------------------------------------------------------------------|
|--------------------------------------------------------------------------------------------------|

Post Chorus: Guitar 1 (Acoustic)
|--------------------------------------------------------------------------------------------------|
|--------------------------------------------------------------------------------------------------|
|--7-/-9-\-7---9--/--16--16-16--16--16-16--16-16----7-/-9-\-7---9--/--16--16-16--16--16-16--16-16--|
|--x---x---x---x------x---x--x---x---x--x---x--x----x---x---x---x------x---x--x---x---x--x---x--x--|
|--5-/-7-\-5---7--/--14--14-14--14--14-14--14-14----5-/-7-\-5---7--/--14--14-14--14--14-14--14-14--|
|--------------------------------------------------------------------------------------------------|
                                                                                                   |
Post Chorus: Guitar 3 (Distorted)                                                                  |
|--------------------------------------------------------------------------------------------------|
|--------------------------------------------------------------------------------------------------|
|--7-----------------------------------------------------------------------------------------------|
|--5-----------------------------------------------------------------------------------------------|
|--5-----------------------------------------------------------------------------------------------|
|--5--------------------------------------------------------------------





Comments


Popular 10 Years tabs & chords
Backlash Tabs
Baptized In Fire Tabs
Half Life 3 Tabs
Now Is The Time Tabs
Paralyzing Kings Tabs
Rest Tabs
So Long Goodbye 1 Tabs
Waking Up 2 Tabs
Waking Up 3 Tabs
Wasteland 2 Tabs


Song lyrics



↑ Back to top | Tablatures and chords are parodies/interpretations of the original songs. You may use it for private study, scholarship, research or language learning purposes only
© 2014 AZChords.com Contact us | Privacy policy | DMCA | Add/correct tabs | Request tabs | Top 50 tabs