» » »

Fix Me Tabs (ver.1)

Artists:  A B C D E F G H I J K L M N O P Q R S T U V W X Y Z # 

Fix Me Tabs (ver.1)

10 Years
Rating:
0/5 (0 votes)

Tabs too difficult? Try these video lessons and learn fast.
                -----------------------------------------------------------------------------
Fix Me ( Acoustic ) - 10 Years
-----------------------------------------------------------------------------

This Tab was in the Requested Songs section so here you go and your welcome!!


This version of Fix me is not found on the regular album FEEDING THE WOLVES
but is found on the DELUXE EDITION of FEEDING THE WOLVES

In my personal opinion this is the best album that 10 years has put out since their 
album THE AUTUMN EFFECT.


-Lyrics-

-Verse-
It's taken a lifetime to loose my way
A lifetime of yesterdays
All the wasted time on my hands
Turns to sand
And fades in the wind
Crossing lines
Small Crimes
Taking back what is mine

-Chorus- (x2)
I'm fine in the fire
I feed on the friction
I'm right where i should be
Don't try and fix me

-Verse 2-
So lost for so long
To find my way
I failed to follow
I'm out of place
Crossing lines
Small crimes
Taking back what is mine

-Chorus- (x2)

-Bridge-
Isolation, Hesitation, Separation, Revelation

-Chorus-outro (x3)

Order lyrics are sang
-verse
-chorus (x2)
-verse 2
-chorus (x2)
-bridge
-Chorus (x3)




Tuning:#C-#G-#C-#F-#A-#d ----- > Down tune 1/2 step , then drop tune E string

-Intro-
e|--------------------------------------------------------------------------|
B|----------10-----------------------------------------10-------------------|
G|----------10--------10--------9----------------------10--------10---------|
D|----0---------0---------0--------0-----0-------0---------0---------0------|
A|-------0---------0---------0--------0-------------0---------0---------0---|
E|-0------------------------------------------0-----------------------------|

e|---0------|
B|---0------|
G|---9------|
D|---0------|
A|---0------|
E|---0------|
     ^
     |---Not sure about this chord but it works

-Verse-
e|--------------------------------------------------------------------------|
B|--------------------------------------------------------------------------|
G|--------------------------------------------------------------------------|
D|--8------10------5------5------7------8-----------------------------------|
A|--8------10------5------5------7------8-----------------------------------|
E|--8------10------5------5------7------8-----------------------------------|


-Pre-Chorus-
e|--------------------------------------------------------------------------|
B|--------------------------------------------------------------------------|
G|----2--2-222---3-3-3-3-3-3-3-3---------1-1-1-1-1-1-1-1-3-3-3-3-3-3-3-3-3--|
D|--3p0--0-000---3-3-3-3-3-3-3-3---------1-1-1-1-1-1-1-1-3-3-3-3-3-3-3-3-3--|
A|--3p0--0-000---1-1-1-1-1-1-1-1---------1-1-1-1-1-1-1-1-3-3-3-3-3-3-3-3-3--|
E|--3p0--0-000------repeat ( x3 )----------(3rd time around end with this)--|

(listen to song for strum pattern)
-Chorus-
e|--------------------------------------------------------------------------|
B|--------------------------------------------------------------------------|
G|--------------------------------------------------------------------------|
D|--8------10------5------5------7------8-----------------------------------|
A|--8------10------5------5------7------8-----------------------------------|
E|--8------10------5------5------7------8-----------------------------------|
**(power chord version)**

e|--------------------------------------------------------------------------|
B|--------------------------------------------------------------------------|
G|--3------5-------7------7------2------3-----------------------------------|
D|--3------5-------5------5------2------3-----------------------------------|
A|--1------3-------5------5------0------1-----------------------------------|
E|-----------------5------5-------------------------------------------------|
**(chord version)**

-Bridge/last chorus x3-
e|--1---1---1---1---0---0---------------------------------------------------|
B|--1---1---1---1---1---1---0---0-------------------------------------------|
G|----2---2---2---2---2---2---2---2-----------------------------------------|
D|----2---2---2---2---2---2---2---2---------repeat this (x8)----------------|
A|--------------------------------------------------------------------------|
E|--------------------------------------------------------------------------|

-Pre-Chorus-
e|--------------------------------------------------------------------------|
B|--------------------------------------------------------------------------|
G|----2--2-222---3-3-3-3-3-3-3-3--------------------------------------------|
D|--3p0--0-000---3-3-3-3-3-3-3-3--------------------------------------------|
A|--3p0--0-000---1-1-1-1-1-1-1-1--------------------------------------------|
E|--3p0--0-000----------------------repeat ( x3 )---------------------------|

************************************

| /   slide up
| \   slide down
| h   hammer-on
| p   pull-off
| ~   vibrato
| +   harmonic
| x   Mute note
| b   Bend
| pb  Pre-bend
| br  Bend release
| pbr Pre-bend release
| brb Bend release bend

************************************

***************************************************************************
========   =========  ==        ======    =======     ==      ==   //==
==         ==     ==  ==        ==     =  ==       ==    ==   ==  // ==
==         ==     ==  ==        ==     =  =====    == == ==   == //  ==
========   =========  ========  ======    ==       ==    ==   ==//   ==
***************************************************************************
            
Tabs too difficult? Try these video lessons and learn fast.




comments powered by Disqus
↑ Back to top | Tablatures and chords are parodies/interpretations of the original songs. You may use it for private study, scholarship, research or language learning purposes only