» » »

10 Years, Fault Line Tabs (ver.2)

Artists:  A B C D E F G H I J K L M N O P Q R S T U V W X Y Z # 

Fault Line Tabs (ver.2)

10 Years Tabs
 Rating:
4/5 (5 votes)
Fault Line lessons Tabs too difficult? Try these video lessons and learn fast
                
Tunning: Drop Db/C# (Db Ab Db Gb Bb eb) or (C# G# C# F# A# D#)
(There are 2 guitarists, both of them mostly have the same part, except verse)

---KEY---
h=hammer ons
p=pull offs
b=bend
//=slide up neck
\\=slide down neck
x=hand on neck mute
---KEY---

Opening
eb|---------------------------------------------------------------------|
Bb|---------------------------------------------------------------------|
Gb|---------------------------------------------------------------------|
Db|---3-3--3--3-3p2-2--2-2--2--2-2--2---3-3--3--3-3p2-2--2-2--2--2-2--2-|
Ab|--3-3-3--3--3---2--2-2-2--2--2-2----3-3-3--3--3---2--2-2-2--2--2-2---|
Db|-3-----3--3-------2-----2--2----2--3-----3--3-------2-----2--2----2--|

eb|----------------|
Bb|----------------|
Gb|----------------|
Db|-2h3-xx-3p2-2---|
Ab|-2h3-xx-3p2-2---|
Db|-2h3-xx-3p2-2---|

Verse
Guitar 1 (This is played over the Opening that guitar 2 plays for verse)
eb|----------------------------------------------------------------------|
Bb|----------------------------------------------------------------------|
Gb|--------------16-17------------16-17-19--19b--------16-17-------------|
Db|-15----14-----------15----14------------------14------------15---14---|
Ab|----------------------------------------------------------------------|
Db|----------------------------------------------------------------------|

Both Guitars
eb|-----------------------------------------------------------|
Bb|-----------------------------------------------------------|
Gb|-99-99--------99-99--------99-99--------555-999-777-121212-|
Db|-99-99--7--7--99-99--7--7--99-99--7--7---------------------|
Ab|-77-77--7--7--77-77--7--7--77-77--7--7--333-777-555-101010-|
Db|--------7--7---------7--7---------7--7---------------------|

Chorus        Play 4 times   End of Chorus   After 2nd Chorus
eb|--------------------------|-----------|-----------|
Bb|--------------------------|-----------|-----------|
Gb|---------1010-1010--------|-----------|-----------|
Db|-7-7-0-0-1010-1010-10-10--|-----------|-----------|
Ab|-7-7-0-0-8-8--8-8--10-10--|-0000------|-0000------|
Db|-7-7-0-0-----------10-10--|-0000------|-0000--0-0-|

Bridge
eb|-------------------------------|
Bb|-------------------------------|
Gb|-10p9----10p9-----9-99-99-99-9-|Play 4 times
Db|-0-------0--------9-99-99-99-9-|
Ab|-----00-0----00-0-7-77-77-77-7-|
Db|-----00-0----00-0--------------|
pm      .. .    .. .

              Play 4 times
eb|-----|----------------------------------|
Bb|-----|----------------------------------|
Gb|-----|----------------------------------|
Db|-----|----------------------10-10--5-5--|
Ab|-----|5h7h8p7-00-0-8p7-00-0-10-10--5-5--|
Db|-5h7-|--------00-0-----00-0-10-10--5-5--|

---ORDER---
Opening
Verse
Chorus
Verse
Chorus
Bridge
Chorus
---ORDER---


Simple good song. Hope you like it.
   -Sylahr
            
Submit corrections

comments powered by Disqus
↑ Back to top | 10 Years Tabs for Fault Line. Lyrics for acoustic guitar and electric guitar. Tablatures and chords are parodies/interpretations of the original songs. You may use it for private study, scholarship, research or language learning purposes only