» » »

10 Years, Fault Line Tabs (ver.1)

Artists:  A B C D E F G H I J K L M N O P Q R S T U V W X Y Z # 

Fault Line Tabs (ver.1)

10 Years Tabs
 Rating:
4/5 (6 votes)
Fault Line lessons Tabs too difficult? Try these video lessons and learn fast
                verse   (x4)  add 2 for the intro
e(--------------------------------------------------)
b(--------------------------------------------------)
g(--------------------------------------------------)
d(------2---2-------2---2/1-----1---1-------1---1---)
a(----2---2---2---2---2-------1---1---1---1---1---1-)
D(--2-----------2-----------1-----------1-----------)

verse(lead)  (x2)
e(---------------)(---------------)
b(--55--44-----4-)(--4-4b-----5-4-)
g(---------4-6---)(-------4-6-----)
d(---------------)(---------------)
a(---------------)(---------------)
D(---------------)(---------------)

pre-chorus  (x3)
   e(-----------)      (------------------)
   b(-----------)      (------------------)
   g(--88-888---)      (------------------)
   d(--88-888-9-)      (------------------)
   a(--66-666-9-)      (------666-444-999-)
   D(---------9-)      (--999-------------)

chorus   x2
e(---------------------)
b(---------------------)
g(--8-8----------------)
d(--8-8-989-9-8-66-4-6-)
a(--6-6-989-9-8-66-4-6-)
D(------989-9-8-66-4-6-)

bridge  (x4)
e(---------------------------------)
b(-------2/4-54------2/4-44-44-444-)
g(---------------------------------)
d(--00-0--------00-0---------------)
a(--00-0--------00-0---------------)
D(--00-0--------00-0---------------)
  pm.. .        .. .

breakdown  x4
e(-----------------------------)
b(-----------------------------)
g(--------88-8-98-88-8-888-666-)
d(--------88-8-98-88-8-888-666-)
a(-----46-66-6-76-66-6-666-444-)
D(--66-------------------------)
            
Submit corrections

comments powered by Disqus
↑ Back to top | 10 Years Tabs for Fault Line. Lyrics for acoustic guitar and electric guitar. Tablatures and chords are parodies/interpretations of the original songs. You may use it for private study, scholarship, research or language learning purposes only