» » »

10 Years, Fallaway Tabs (ver.1)

Artists:  A B C D E F G H I J K L M N O P Q R S T U V W X Y Z # 

Fallaway Tabs (ver.1)

10 Years Tabs
 Rating:
4/5 (4 votes)
Fallaway lessons Tabs too difficult? Try these video lessons and learn fast
                -------------------------------------------------------------------------------
-------------------------------------------------------------------------------

Tuning: Drop C# (C# G# C# F# A# D#)

Digital Delay is used throughout the Intro, Verses, and Pre and Post Choruses

Intro/Verse 1/Pre-Chorus
D#|-----------------------------------------------------------|
A#|-----------------------------------------------------------|
F#|-----------------------------------------------------------| (x6)
C#|------2--------------0--------------2--------------5----3--|
G#|----2--------------0--------------2--------------5---------|
C#|--2--------------0--------------2--------------5-----------|
     * * *          * * *          * * *          * * *

Chorus 2
D#|-----------------------------------------------------------|
A#|-------------------------------------------6--6-5--5-3-----|
F#|-------------------------------------------x--x-x--x-x-----| (x3)
C#|--7-7--7----7-7--7----7-7--7-----5--5-5----3--3-2--2-0-----|
G#|--7-7--7----7-7--7----7-7--7-----5--5-5----3--3-2--2-0-----|
C#|--7-7--7----7-7--7----7-7--7-----5--5-5----3--3-2--2-0-----|

D#|-----------------------------------------------------------|
A#|-----------------------------------------------------------|
F#|-----------------------------------------------------------|
C#|--7-7--7----7-7--7----7-7--7-----5--5-5----3--3-2--2-0-----|
G#|--7-7--7----7-7--7----7-7--7-----5--5-5----3--3-2--2-0-----|
C#|--7-7--7----7-7--7----7-7--7-----5--5-5----3--3-2--2-0-----|


Post-Chorus/Verse 2/Pre-Chorus
D#|-----------------------------------------------------------|
A#|-----------------------------------------------------------|
F#|-----------------------------------------------------------| (x6)
C#|------2--------------0--------------2--------------5----3--|
G#|----2--------------0--------------2--------------5---------|
C#|--2--------------0--------------2--------------5-----------|
     * * *          * * *          * * *          * * *

Chorus 2
D#|-----------------------------------------------------------|
A#|-------------------------------------------6--6-5--5-3-----|
F#|-------------------------------------------x--x-x--x-x-----| (x3)
C#|--7-7--7----7-7--7----7-7--7-----5--5-5----3--3-2--2-0-----|
G#|--7-7--7----7-7--7----7-7--7-----5--5-5----3--3-2--2-0-----|
C#|--7-7--7----7-7--7----7-7--7-----5--5-5----3--3-2--2-0-----|

D#|-----------------------------------------------------------|
A#|-----------------------------------------------------------|
F#|-----------------------------------------------------------|
C#|--7-7--7----7-7--7----7-7--7-----5--5-5----3--3-2--2-0-----|
G#|--7-7--7----7-7--7----7-7--7-----5--5-5----3--3-2--2-0-----|
C#|--7-7--7----7-7--7----7-7--7-----5--5-5----3--3-2--2-0-----|

D#|-----------------------------------------------------------|
A#|-------------------------------------------6--6-5--5-3-----|
F#|-------------------------------------------x--x-x--x-x-----| (x4)
C#|--7-7--7----7-7--7----7-7--7-----5--5-5----3--3-2--2-0-----|
G#|--7-7--7----7-7--7----7-7--7-----5--5-5----3--3-2--2-0-----|
C#|--7-7--7----7-7--7----7-7--7-----5--5-5----3--3-2--2-0-----|

Breakdown/Outro
D#|-----------------------------------------------------------|
A#|-----------------------------------------------------------|
F#|-----------------------------------------------------------| (x2)
C#|-----------------------------------------------------------|
G#|-----------------------------------------------------------|
C#|--0h2--2---2h5p2--2---2p0h2--2---2h5p2---2-----------------|

D#|-----------------------------------------------------------|
A#|-----------------------------------------------------------|
F#|----------------------------------4--4---------------------| (x4)
C#|--0h2--2---2/5\2--2---2p0h2--2--2-4--4---------------------|
G#|--0h2--2---2/5\2--2---2p0h2--2--2-2--2--2h3p2p0------------|
C#|--0h2--2---2/5\2--2---2p0h2--2--2---------------3p2--------|

D#|-----------------------------------------------------------|
A#|-----------------------------------------------------------|
F#|-----------------------------------------------------------| (x4)
C#|--0h2--2---0h2/5--5---5p0h2--2---0h2-----------------------|
G#|--0h2--2---0h2/5--5---5p0h2--2---0h2-----------------------|
C#|--0h2--2---0h2/5--5---5p0h2--2---0h2-----------------------|


************************************

| /   slide up
| \   slide down
| h   hammer-on
| p   pull-off
| x   Mute note
| *   Palm Mute
************************************
            
Submit corrections

comments powered by Disqus
↑ Back to top | 10 Years Tabs for Fallaway. Lyrics for acoustic guitar and electric guitar. Tablatures and chords are parodies/interpretations of the original songs. You may use it for private study, scholarship, research or language learning purposes only